  0
SECTION
  2
HEADER
  9
$ACADVER
  1
AC1018
  9
$ACADMAINTVER
 70
     0
  9
$DWGCODEPAGE
  3
ANSI_1252
  9
$INSBASE
 10
0.0
 20
0.0
 30
0.0
  9
$EXTMIN
 10
-204.6491
 20
-73.8771
 30
0.0
  9
$EXTMAX
 10
204.0231
 20
74.5642
 30
0.0
  9
$LIMMIN
 10
-204.6491
 20
-73.8771
  9
$LIMMAX
 10
204.0231
 20
74.5642
  9
$ORTHOMODE
 70
     0
  9
$REGENMODE
 70
     1
  9
$FILLMODE
 70
     1
  9
$QTEXTMODE
 70
     0
  9
$MIRRTEXT
 70
     1
  9
$LTSCALE
 40
1.0
  9
$ATTMODE
 70
     1
  9
$TEXTSIZE
 40
0.2
  9
$TRACEWID
 40
0.05
  9
$TEXTSTYLE
  7
STANDARD
  9
$CLAYER
  8
DEFAULT
  9
$CELTYPE
  6
BYLAYER
  9
$CECOLOR
 62
   256
  9
$CELTSCALE
 40
1.0
  9
$DISPSILH
 70
     0
  9
$DIMSCALE
 40
1.0
  9
$DIMASZ
 40
0.18
  9
$DIMEXO
 40
0.0625
  9
$DIMDLI
 40
0.38
  9
$DIMRND
 40
0.0
  9
$DIMDLE
 40
0.0
  9
$DIMEXE
 40
0.18
  9
$DIMTP
 40
0.0
  9
$DIMTM
 40
0.0
  9
$DIMTXT
 40
0.18
  9
$DIMCEN
 40
0.09
  9
$DIMTSZ
 40
0.0
  9
$DIMTOL
 70
     0
  9
$DIMLIM
 70
     0
  9
$DIMTIH
 70
     1
  9
$DIMTOH
 70
     1
  9
$DIMSE1
 70
     0
  9
$DIMSE2
 70
     0
  9
$DIMTAD
 70
     0
  9
$DIMZIN
 70
     0
  9
$DIMBLK
  1

  9
$DIMASO
 70
     1
  9
$DIMSHO
 70
     1
  9
$DIMPOST
  1

  9
$DIMAPOST
  1

  9
$DIMALT
 70
     0
  9
$DIMALTD
 70
     2
  9
$DIMALTF
 40
25.4
  9
$DIMLFAC
 40
1.0
  9
$DIMTOFL
 70
     0
  9
$DIMTVP
 40
0.0
  9
$DIMTIX
 70
     0
  9
$DIMSOXD
 70
     0
  9
$DIMSAH
 70
     0
  9
$DIMBLK1
  1

  9
$DIMBLK2
  1

  9
$DIMSTYLE
  2
STANDARD
  9
$DIMCLRD
 70
     0
  9
$DIMCLRE
 70
     0
  9
$DIMCLRT
 70
     0
  9
$DIMTFAC
 40
1.0
  9
$DIMGAP
 40
0.09
  9
$DIMJUST
 70
     0
  9
$DIMSD1
 70
     0
  9
$DIMSD2
 70
     0
  9
$DIMTOLJ
 70
     1
  9
$DIMTZIN
 70
     0
  9
$DIMALTZ
 70
     0
  9
$DIMALTTZ
 70
     0
  9
$DIMUPT
 70
     0
  9
$DIMDEC
 70
     4
  9
$DIMTDEC
 70
     4
  9
$DIMALTU
 70
     2
  9
$DIMALTTD
 70
     2
  9
$DIMTXSTY
  7
STANDARD
  9
$DIMAUNIT
 70
     0
  9
$DIMADEC
 70
     0
  9
$DIMALTRND
 40
0.0
  9
$DIMAZIN
 70
     0
  9
$DIMDSEP
 70
    46
  9
$DIMATFIT
 70
     3
  9
$DIMFRAC
 70
     0
  9
$DIMLDRBLK
  1

  9
$DIMLUNIT
 70
     2
  9
$DIMLWD
 70
    -2
  9
$DIMLWE
 70
    -2
  9
$DIMTMOVE
 70
     0
  9
$LUNITS
 70
     2
  9
$LUPREC
 70
     4
  9
$SKETCHINC
 40
0.1
  9
$FILLETRAD
 40
0.5
  9
$AUNITS
 70
     0
  9
$AUPREC
 70
     0
  9
$MENU
  1
.
  9
$ELEVATION
 40
0.0
  9
$PELEVATION
 40
0.0
  9
$THICKNESS
 40
0.0
  9
$LIMCHECK
 70
     0
  9
$CHAMFERA
 40
0.5
  9
$CHAMFERB
 40
0.5
  9
$CHAMFERC
 40
1.0
  9
$CHAMFERD
 40
0.0
  9
$SKPOLY
 70
     0
  9
$TDCREATE
 40
2453971.336030093
  9
$TDUCREATE
 40
2453971.627696759
  9
$TDUPDATE
 40
2453971.336030093
  9
$TDUUPDATE
 40
2453971.627696759
  9
$TDINDWG
 40
0.0
  9
$TDUSRTIMER
 40
0.0
  9
$USRTIMER
 70
     1
  9
$ANGBASE
 50
0.0
  9
$ANGDIR
 70
     0
  9
$PDMODE
 70
     0
  9
$PDSIZE
 40
0.0
  9
$PLINEWID
 40
0.0
  9
$SPLFRAME
 70
     0
  9
$SPLINETYPE
 70
     6
  9
$SPLINESEGS
 70
     8
  9
$HANDSEED
  5
5AA
  9
$SURFTAB1
 70
     6
  9
$SURFTAB2
 70
     6
  9
$SURFTYPE
 70
     6
  9
$SURFU
 70
     6
  9
$SURFV
 70
     6
  9
$UCSBASE
  2

  9
$UCSNAME
  2

  9
$UCSORG
 10
0.0
 20
0.0
 30
0.0
  9
$UCSXDIR
 10
1.0
 20
0.0
 30
0.0
  9
$UCSYDIR
 10
0.0
 20
1.0
 30
0.0
  9
$UCSORTHOREF
  2

  9
$UCSORTHOVIEW
 70
     0
  9
$UCSORGTOP
 10
0.0
 20
0.0
 30
0.0
  9
$UCSORGBOTTOM
 10
0.0
 20
0.0
 30
0.0
  9
$UCSORGLEFT
 10
0.0
 20
0.0
 30
0.0
  9
$UCSORGRIGHT
 10
0.0
 20
0.0
 30
0.0
  9
$UCSORGFRONT
 10
0.0
 20
0.0
 30
0.0
  9
$UCSORGBACK
 10
0.0
 20
0.0
 30
0.0
  9
$PUCSBASE
  2

  9
$PUCSNAME
  2

  9
$PUCSORG
 10
0.0
 20
0.0
 30
0.0
  9
$PUCSXDIR
 10
1.0
 20
0.0
 30
0.0
  9
$PUCSYDIR
 10
0.0
 20
1.0
 30
0.0
  9
$PUCSORTHOREF
  2

  9
$PUCSORTHOVIEW
 70
     0
  9
$PUCSORGTOP
 10
0.0
 20
0.0
 30
0.0
  9
$PUCSORGBOTTOM
 10
0.0
 20
0.0
 30
0.0
  9
$PUCSORGLEFT
 10
0.0
 20
0.0
 30
0.0
  9
$PUCSORGRIGHT
 10
0.0
 20
0.0
 30
0.0
  9
$PUCSORGFRONT
 10
0.0
 20
0.0
 30
0.0
  9
$PUCSORGBACK
 10
0.0
 20
0.0
 30
0.0
  9
$USERI1
 70
     0
  9
$USERI2
 70
     0
  9
$USERI3
 70
     0
  9
$USERI4
 70
     0
  9
$USERI5
 70
     0
  9
$USERR1
 40
0.0
  9
$USERR2
 40
0.0
  9
$USERR3
 40
0.0
  9
$USERR4
 40
0.0
  9
$USERR5
 40
0.0
  9
$WORLDVIEW
 70
     1
  9
$SHADEDGE
 70
     3
  9
$SHADEDIF
 70
    70
  9
$TILEMODE
 70
     1
  9
$MAXACTVP
 70
    48
  9
$PINSBASE
 10
0.0
 20
0.0
 30
0.0
  9
$PLIMCHECK
 70
     0
  9
$PEXTMIN
 10
1.000000000000000E+20
 20
1.000000000000000E+20
 30
1.000000000000000E+20
  9
$PEXTMAX
 10
-1.000000000000000E+20
 20
-1.000000000000000E+20
 30
-1.000000000000000E+20
  9
$PLIMMIN
 10
0.0
 20
0.0
  9
$PLIMMAX
 10
12.0
 20
9.0
  9
$UNITMODE
 70
     0
  9
$VISRETAIN
 70
     1
  9
$PLINEGEN
 70
     0
  9
$PSLTSCALE
 70
     1
  9
$TREEDEPTH
 70
  3020
  9
$CMLSTYLE
  2
STANDARD
  9
$CMLJUST
 70
     0
  9
$CMLSCALE
 40
1.0
  9
$PROXYGRAPHICS
 70
     1
  9
$MEASUREMENT
 70
     0
  9
$CELWEIGHT
370
    -1
  9
$ENDCAPS
280
     0
  9
$JOINSTYLE
280
     0
  9
$LWDISPLAY
290
     0
  9
$INSUNITS
 70
     0
  9
$HYPERLINKBASE
  1

  9
$STYLESHEET
  1

  9
$XEDIT
290
     1
  9
$CEPSNTYPE
380
     0
  9
$PSTYLEMODE
290
     1
  9
$FINGERPRINTGUID
  2
{F0E273E5-CF5D-4972-BCAD-65E7A5E3C06D}
  9
$VERSIONGUID
  2
{FAEB1C32-E019-11D5-929B-00C0DF256EC4}
  9
$EXTNAMES
290
     1
  9
$PSVPSCALE
 40
0.0
  9
$OLESTARTUP
290
     0
  9
$SORTENTS
280
   127
  9
$INDEXCTL
280
     0
  9
$HIDETEXT
280
     1
  9
$XCLIPFRAME
290
     0
  9
$HALOGAP
280
     0
  9
$OBSCOLOR
 70
   257
  9
$OBSLTYPE
280
     0
  9
$INTERSECTIONDISPLAY
280
     0
  9
$INTERSECTIONCOLOR
 70
   257
  9
$DIMASSOC
280
     2
  9
$PROJECTNAME
  1

  0
ENDSEC
  0
SECTION
  2
CLASSES
  0
ENDSEC
  0
SECTION
  2
TABLES
  0
TABLE
  2
VPORT
  5
8
330
0
100
AcDbSymbolTable
 70
     1
  0
VPORT
  5
1E
330
8
100
AcDbSymbolTableRecord
100
AcDbViewportTableRecord
  2
*ACTIVE
 70
     0
 10
0.0
 20
0.0
 11
1.0
 21
1.0
 12
-0.313
 22
0.3435
 13
0.0
 23
0.0
 14
0.1
 24
0.1
 15
0.1
 25
0.1
 16
0.0
 26
0.0
 36
1.0
 17
0.0
 27
0.0
 37
0.0
 40
148.4413
 41
2.753
 42
50.0
 43
0.0
 44
0.0
 50
0.0
 51
0.0
 71
     0
 72
   100
 73
     1
 74
     1
 75
     0
 76
     0
 77
     0
 78
     0
281
     0
 65
     1
110
0.0
120
0.0
130
0.0
111
1.0
121
0.0
131
0.0
112
0.0
122
1.0
132
0.0
 79
     0
146
0.0
  0
ENDTAB
  0
TABLE
  2
LTYPE
  5
5
330
0
100
AcDbSymbolTable
 70
     3
  0
LTYPE
  5
12
330
5
100
AcDbSymbolTableRecord
100
AcDbLinetypeTableRecord
  2
BYBLOCK
 70
     0
  3

 72
    65
 73
     0
 40
0.0
  0
LTYPE
  5
13
330
5
100
AcDbSymbolTableRecord
100
AcDbLinetypeTableRecord
  2
BYLAYER
 70
     0
  3

 72
    65
 73
     0
 40
0.0
  0
LTYPE
  5
14
330
5
100
AcDbSymbolTableRecord
100
AcDbLinetypeTableRecord
  2
CONTINUOUS
 70
     0
  3
Solid line
 72
    65
 73
     0
 40
0.0
  0
LTYPE
  5
20
330
5
100
AcDbSymbolTableRecord
100
AcDbLinetypeTableRecord
  2
DASHED
 70
     0
  3
__ __ __ __ __ __ __ __ __ __ __ __ __ __ __
 72
    65
 73
     2
 40
0.75
 49
0.5
 74
     0
 49
-0.25
 74
     0
  0
LTYPE
  5
21
330
5
100
AcDbSymbolTableRecord
100
AcDbLinetypeTableRecord
  2
DOT
 70
     0
  3
...............................................
 72
    65
 73
     2
 40
0.25
 49
0.0
 74
     0
 49
-0.25
 74
     0
  0
ENDTAB
  0
TABLE
  2
LAYER
  5
2
330
0
100
AcDbSymbolTable
 70
     2
  0
LAYER
  5
E
330
2
100
AcDbSymbolTableRecord
100
AcDbLayerTableRecord
  2
0
 70
     0
 62
     7
  6
CONTINUOUS
370
    -3
390
0
  0
LAYER
  5
22
330
2
100
AcDbSymbolTableRecord
100
AcDbLayerTableRecord
  2
DEFAULT
 70
     0
 62
     7
  6
CONTINUOUS
370
    -3
390
0
  0
ENDTAB
  0
TABLE
  2
STYLE
  5
3
330
0
100
AcDbSymbolTable
 70
     4
  0
STYLE
  5
F
330
3
100
AcDbSymbolTableRecord
100
AcDbTextStyleTableRecord
  2
STANDARD
 70
     0
 40
0.0
 41
1.0
 50
0.0
 71
     0
 42
0.2
  3
txt
  4

  0
STYLE
  5
23
330
3
100
AcDbSymbolTableRecord
100
AcDbTextStyleTableRecord
  2
ARIAL_BOLD
 70
     0
 40
0.0
 41
1.0
 50
0.0
 71
     0
 42
0.2
  3
ARIALBD.TTF
  4

  0
STYLE
  5
24
330
3
100
AcDbSymbolTableRecord
100
AcDbTextStyleTableRecord
  2
ARIAL
 70
     0
 40
0.0
 41
1.0
 50
0.0
 71
     0
 42
0.2
  3
ARIAL.TTF
  4

  0
STYLE
  5
25
330
3
100
AcDbSymbolTableRecord
100
AcDbTextStyleTableRecord
  2
ENGRAVERS_MT_MEDIUM
 70
     0
 40
0.0
 41
1.0
 50
0.0
 71
     0
 42
0.2
  3
ENGR.TTF
  4

  0
ENDTAB
  0
TABLE
  2
VIEW
  5
6
330
0
100
AcDbSymbolTable
 70
     0
  0
ENDTAB
  0
TABLE
  2
UCS
  5
7
330
0
100
AcDbSymbolTable
 70
     0
  0
ENDTAB
  0
TABLE
  2
APPID
  5
9
330
0
100
AcDbSymbolTable
 70
     1
  0
APPID
  5
10
330
9
100
AcDbSymbolTableRecord
100
AcDbRegAppTableRecord
  2
ACAD
 70
     0
  0
ENDTAB
  0
TABLE
  2
DIMSTYLE
  5
A
330
0
100
AcDbSymbolTable
 70
     1
100
AcDbDimStyleTable
  0
DIMSTYLE
105
1D
330
A
100
AcDbSymbolTableRecord
100
AcDbDimStyleTableRecord
  2
STANDARD
 70
     0
340
F
  0
ENDTAB
  0
TABLE
  2
BLOCK_RECORD
  5
1
330
0
100
AcDbSymbolTable
 70
     0
  0
BLOCK_RECORD
  5
18
330
1
100
AcDbSymbolTableRecord
100
AcDbBlockTableRecord
  2
*MODEL_SPACE
340
5A8
  0
BLOCK_RECORD
  5
15
330
1
100
AcDbSymbolTableRecord
100
AcDbBlockTableRecord
  2
*PAPER_SPACE
340
5A9
  0
ENDTAB
  0
ENDSEC
  0
SECTION
  2
BLOCKS
  0
BLOCK
  5
19
330
18
100
AcDbEntity
  8
0
100
AcDbBlockBegin
  2
*MODEL_SPACE
 70
     0
 71
     0
 10
0.0
 20
0.0
 30
0.0
  3
*MODEL_SPACE
  1
     0
  0
ENDBLK
  5
1A
330
18
100
AcDbEntity
  8
0
100
AcDbBlockEnd
  0
BLOCK
  5
16
330
15
100
AcDbEntity
 67
     1
  8
0
100
AcDbBlockBegin
  2
*PAPER_SPACE
 70
     0
 71
     0
 10
0.0
 20
0.0
 30
0.0
  3
*PAPER_SPACE
  1
     0
  0
ENDBLK
  5
17
330
15
100
AcDbEntity
 67
     1
  8
0
100
AcDbBlockEnd
  0
ENDSEC
  0
SECTION
  2
ENTITIES
  0
POINT
  5
26
330
18
100
AcDbEntity
  8
DEFAULT
 62
     1
100
AcDbPoint
 10
164.6662
 20
32.0056
 30
0.0
  0
LINE
  5
27
330
18
100
AcDbEntity
  8
DEFAULT
100
AcDbLine
 10
134.6663
 20
32.0056
 30
0.0
 11
194.6663
 21
32.0056
 31
0.0
  0
TEXT
  5
28
330
18
100
AcDbEntity
  8
DEFAULT
100
AcDbText
 10
154.3948
 20
43.9223
 30
0.0
 40
1.5789
  1
Sundial North Face
  7
ARIAL_BOLD
100
AcDbText
  0
LINE
  5
29
330
18
100
AcDbEntity
  8
DEFAULT
100
AcDbLine
 10
134.6663
 20
34.0475
 30
0.0
 11
194.6663
 21
34.0475
 31
0.0
  0
LINE
  5
2A
330
18
100
AcDbEntity
  8
DEFAULT
100
AcDbLine
 10
134.6663
 20
32.0056
 30
0.0
 11
134.6663
 21
34.0475
 31
0.0
  0
LINE
  5
2B
330
18
100
AcDbEntity
  8
DEFAULT
100
AcDbLine
 10
194.6663
 20
32.0056
 30
0.0
 11
194.6663
 21
34.0475
 31
0.0
  0
LINE
  5
2C
330
18
100
AcDbEntity
  8
DEFAULT
100
AcDbLine
 10
134.6663
 20
34.0475
 30
0.0
 11
164.6662
 21
66.7718
 31
0.0
  0
LINE
  5
2D
330
18
100
AcDbEntity
  8
DEFAULT
100
AcDbLine
 10
164.6661
 20
66.7718
 30
0.0
 11
194.6663
 21
34.0475
 31
0.0
  0
LINE
  5
2E
330
18
100
AcDbEntity
  8
DEFAULT
100
AcDbLine
 10
164.6661
 20
66.7718
 30
0.0
 11
164.6661
 21
69.87900000000001
 31
0.0
  0
LINE
  5
2F
330
18
100
AcDbEntity
  8
DEFAULT
100
AcDbLine
 10
134.6663
 20
37.1548
 30
0.0
 11
164.6661
 21
69.87900000000001
 31
0.0
  0
LINE
  5
30
330
18
100
AcDbEntity
  8
DEFAULT
100
AcDbLine
 10
134.6663
 20
34.0475
 30
0.0
 11
134.6663
 21
37.1548
 31
0.0
  0
LINE
  5
31
330
18
100
AcDbEntity
  8
DEFAULT
100
AcDbLine
 10
164.6661
 20
69.87900000000001
 30
0.0
 11
194.6663
 21
37.1548
 31
0.0
  0
LINE
  5
32
330
18
100
AcDbEntity
  8
DEFAULT
100
AcDbLine
 10
194.6663
 20
34.0475
 30
0.0
 11
194.6663
 21
37.1548
 31
0.0
  0
SOLID
  5
33
330
18
100
AcDbEntity
  8
DEFAULT
 62
     3
100
AcDbTrace
 10
198.8507
 20
31.8206
 30
0.0
 11
198.7924
 21
31.8206
 31
0.0
 12
198.8216
 22
32.0056
 32
0.0
 13
198.8216
 23
32.0056
 33
0.0
  0
SOLID
  5
34
330
18
100
AcDbEntity
  8
DEFAULT
 62
     3
100
AcDbTrace
 10
198.7924
 20
8.1906
 30
0.0
 11
198.8507
 21
8.1906
 31
0.0
 12
198.8216
 22
8.005699999999999
 32
0.0
 13
198.8216
 23
8.005699999999999
 33
0.0
  0
LINE
  5
35
330
18
100
AcDbEntity
  8
DEFAULT
 62
     3
100
AcDbLine
 10
198.8216
 20
22.1567
 30
0.0
 11
198.8216
 21
32.0056
 31
0.0
  0
LINE
  5
36
330
18
100
AcDbEntity
  8
DEFAULT
 62
     3
100
AcDbLine
 10
198.8216
 20
8.005699999999999
 30
0.0
 11
198.8216
 21
19.9483
 31
0.0
  0
TEXT
  5
37
330
18
100
AcDbEntity
  8
DEFAULT
 62
     3
100
AcDbText
 10
197.6407
 20
20.2467
 30
0.0
 40
1.5789
  1
24
  7
ARIAL_BOLD
100
AcDbText
  0
LINE
  5
38
330
18
100
AcDbEntity
  8
DEFAULT
 62
     3
100
AcDbLine
 10
166.3275
 20
8.005699999999999
 30
0.0
 11
198.9466
 21
8.005699999999999
 31
0.0
  0
LINE
  5
39
330
18
100
AcDbEntity
  8
DEFAULT
 62
     3
100
AcDbLine
 10
194.7288
 20
32.0056
 30
0.0
 11
198.9466
 21
32.0056
 31
0.0
  0
LINE
  5
3A
330
18
100
AcDbEntity
  8
DEFAULT
100
AcDbLine
 10
137.0651
 20
61.8904
 30
0.0
 11
149.0651
 21
61.8904
 31
0.0
  0
LINE
  5
3B
330
18
100
AcDbEntity
  8
DEFAULT
100
AcDbLine
 10
137.0651
 20
61.8904
 30
0.0
 11
137.0651
 21
63.2801
 31
0.0
  0
LINE
  5
3C
330
18
100
AcDbEntity
  8
DEFAULT
100
AcDbLine
 10
138.0651
 20
61.8904
 30
0.0
 11
138.0651
 21
63.2801
 31
0.0
  0
LINE
  5
3D
330
18
100
AcDbEntity
  8
DEFAULT
100
AcDbLine
 10
139.0651
 20
61.8904
 30
0.0
 11
139.0651
 21
63.2801
 31
0.0
  0
LINE
  5
3E
330
18
100
AcDbEntity
  8
DEFAULT
100
AcDbLine
 10
140.0651
 20
61.8904
 30
0.0
 11
140.0651
 21
63.2801
 31
0.0
  0
LINE
  5
3F
330
18
100
AcDbEntity
  8
DEFAULT
100
AcDbLine
 10
141.0651
 20
61.8904
 30
0.0
 11
141.0651
 21
63.2801
 31
0.0
  0
LINE
  5
40
330
18
100
AcDbEntity
  8
DEFAULT
100
AcDbLine
 10
142.0651
 20
61.8904
 30
0.0
 11
142.0651
 21
63.2801
 31
0.0
  0
LINE
  5
41
330
18
100
AcDbEntity
  8
DEFAULT
100
AcDbLine
 10
143.0651
 20
61.8904
 30
0.0
 11
143.0651
 21
63.2801
 31
0.0
  0
LINE
  5
42
330
18
100
AcDbEntity
  8
DEFAULT
100
AcDbLine
 10
144.0651
 20
61.8904
 30
0.0
 11
144.0651
 21
63.2801
 31
0.0
  0
LINE
  5
43
330
18
100
AcDbEntity
  8
DEFAULT
100
AcDbLine
 10
145.0651
 20
61.8904
 30
0.0
 11
145.0651
 21
63.2801
 31
0.0
  0
LINE
  5
44
330
18
100
AcDbEntity
  8
DEFAULT
100
AcDbLine
 10
146.0651
 20
61.8904
 30
0.0
 11
146.0651
 21
63.2801
 31
0.0
  0
LINE
  5
45
330
18
100
AcDbEntity
  8
DEFAULT
100
AcDbLine
 10
147.0651
 20
61.8904
 30
0.0
 11
147.0651
 21
63.2801
 31
0.0
  0
LINE
  5
46
330
18
100
AcDbEntity
  8
DEFAULT
100
AcDbLine
 10
148.0651
 20
61.8904
 30
0.0
 11
148.0651
 21
63.2801
 31
0.0
  0
LINE
  5
47
330
18
100
AcDbEntity
  8
DEFAULT
100
AcDbLine
 10
149.0651
 20
61.8904
 30
0.0
 11
149.0651
 21
63.2801
 31
0.0
  0
POINT
  5
48
330
18
100
AcDbEntity
  8
DEFAULT
 62
     1
100
AcDbPoint
 10
143.0651
 20
61.8904
 30
0.0
  0
TEXT
  5
49
330
18
100
AcDbEntity
  8
DEFAULT
100
AcDbText
 10
137.2675
 20
59.7342
 30
0.0
 40
1.1368
  1
Scale: 12 inches
  7
ARIAL
100
AcDbText
  0
SOLID
  5
4A
330
18
100
AcDbEntity
  8
DEFAULT
 62
     3
100
AcDbTrace
 10
138.8747
 20
31.8206
 30
0.0
 11
138.8164
 21
31.8206
 31
0.0
 12
138.8456
 22
32.0056
 32
0.0
 13
138.8456
 23
32.0056
 33
0.0
  0
SOLID
  5
4B
330
18
100
AcDbEntity
  8
DEFAULT
 62
     3
100
AcDbTrace
 10
138.8164
 20
-53.2263
 30
0.0
 11
138.8747
 21
-53.2263
 31
0.0
 12
138.8456
 22
-53.4113
 32
0.0
 13
138.8456
 23
-53.4113
 33
0.0
  0
LINE
  5
4C
330
18
100
AcDbEntity
  8
DEFAULT
 62
     3
100
AcDbLine
 10
138.8456
 20
-14.5496
 30
0.0
 11
138.8456
 21
32.0056
 31
0.0
  0
LINE
  5
4D
330
18
100
AcDbEntity
  8
DEFAULT
 62
     3
100
AcDbLine
 10
138.8456
 20
-53.4113
 30
0.0
 11
138.8456
 21
-18.2746
 31
0.0
  0
TEXT
  5
4E
330
18
100
AcDbEntity
  8
DEFAULT
 62
     3
100
AcDbText
 10
136.6916
 20
-17.0567
 30
0.0
 40
1.2632
  1
85 7/16
  7
ARIAL_BOLD
100
AcDbText
  0
LINE
  5
4F
330
18
100
AcDbEntity
  8
DEFAULT
 62
     3
100
AcDbLine
 10
134.7288
 20
32.0056
 30
0.0
 11
138.9706
 21
32.0056
 31
0.0
  0
LINE
  5
50
330
18
100
AcDbEntity
  8
DEFAULT
 62
     3
100
AcDbLine
 10
138.7206
 20
-53.4113
 30
0.0
 11
164.6037
 21
-53.4113
 31
0.0
  0
POINT
  5
51
330
18
100
AcDbEntity
  8
DEFAULT
 62
     1
100
AcDbPoint
 10
20.6221
 20
1.3279
 30
0.0
  0
LINE
  5
52
330
18
100
AcDbEntity
  8
DEFAULT
100
AcDbLine
 10
0.376
 20
18.3608
 30
0.0
 11
0.3761
 21
18.3607
 31
0.0
  0
LINE
  5
53
330
18
100
AcDbEntity
  8
DEFAULT
100
AcDbLine
 10
0.3761
 20
18.3607
 30
0.0
 11
0.3761
 21
18.3608
 31
0.0
  0
LINE
  5
54
330
18
100
AcDbEntity
  8
DEFAULT
100
AcDbLine
 10
14.8986
 20
1.8377
 30
0.0
 11
19.9367
 21
-4.3766
 31
0.0
  0
LINE
  5
55
330
18
100
AcDbEntity
  8
DEFAULT
100
AcDbLine
 10
14.8986
 20
1.8377
 30
0.0
 11
14.9956
 21
1.9164
 31
0.0
  0
LINE
  5
56
330
18
100
AcDbEntity
  8
DEFAULT
100
AcDbLine
 10
19.9367
 20
-4.3766
 30
0.0
 11
20.0338
 21
-4.2978
 31
0.0
  0
LINE
  5
57
330
18
100
AcDbEntity
  8
DEFAULT
  6
DASHED
100
AcDbLine
 10
16.4733
 20
-0.1046
 30
0.0
 11
19.6775
 21
2.4932
 31
0.0
  0
LINE
  5
58
330
18
100
AcDbEntity
  8
DEFAULT
  6
DASHED
100
AcDbLine
 10
18.3625
 20
-2.4348
 30
0.0
 11
21.5668
 21
0.1628
 31
0.0
  0
LINE
  5
59
330
18
100
AcDbEntity
  8
DEFAULT
100
AcDbLine
 10
-4.3013
 20
25.7178
 30
0.0
 11
-1.1943
 21
28.2369
 31
0.0
  0
LINE
  5
5A
330
18
100
AcDbEntity
  8
DEFAULT
100
AcDbLine
 10
-1.4612
 20
-14.6449
 30
0.0
 11
16.4734
 21
-0.1047
 31
0.0
  0
LINE
  5
5B
330
18
100
AcDbEntity
  8
DEFAULT
100
AcDbLine
 10
3.3019
 20
-14.6449
 30
0.0
 11
18.3626
 21
-2.4349
 31
0.0
  0
TEXT
  5
5C
330
18
100
AcDbEntity
  8
DEFAULT
100
AcDbText
 10
32.8561
 20
-9.391400000000001
 30
0.0
 40
0.7579
  1
North Face
  7
ARIAL
100
AcDbText
  0
TEXT
  5
5D
330
18
100
AcDbEntity
  8
DEFAULT
100
AcDbText
 10
32.8561
 20
-10.5482
 30
0.0
 40
0.7579
  1
bottom line
  7
ARIAL
100
AcDbText
  0
LINE
  5
5E
330
18
100
AcDbEntity
  8
DEFAULT
 62
     1
100
AcDbLine
 10
31.5301
 20
-12.1261
 30
0.0
 11
32.5069
 21
-11.9693
 31
0.0
  0
LINE
  5
5F
330
18
100
AcDbEntity
  8
DEFAULT
 62
     1
100
AcDbLine
 10
31.5301
 20
-12.1261
 30
0.0
 11
31.7357
 21
-11.1583
 31
0.0
  0
LINE
  5
60
330
18
100
AcDbEntity
  8
DEFAULT
 62
     1
100
AcDbLine
 10
31.5301
 20
-12.1261
 30
0.0
 11
33.5117
 21
-10.2416
 31
0.0
  0
POINT
  5
61
330
18
100
AcDbEntity
  8
DEFAULT
 62
     1
100
AcDbPoint
 10
57.572
 20
-14.6449
 30
0.0
  0
TEXT
  5
62
330
18
100
AcDbEntity
  8
DEFAULT
100
AcDbText
 10
25.5316
 20
44.063
 30
0.0
 40
1.1368
  1
equinoxes
  7
ARIAL_BOLD
100
AcDbText
  0
TEXT
  5
63
330
18
100
AcDbEntity
  8
DEFAULT
100
AcDbText
 10
35.9946
 20
49.167
 30
0.0
 40
1.1368
  1
summer
  7
ARIAL_BOLD
100
AcDbText
  0
TEXT
  5
64
330
18
100
AcDbEntity
  8
DEFAULT
100
AcDbText
 10
35.9946
 20
47.4317
 30
0.0
 40
1.1368
  1
solstice
  7
ARIAL_BOLD
100
AcDbText
  0
TEXT
  5
65
330
18
100
AcDbEntity
  8
DEFAULT
100
AcDbText
 10
19.4989
 20
35.6523
 30
0.0
 40
1.1368
  1
winter
  7
ARIAL_BOLD
100
AcDbText
  0
TEXT
  5
66
330
18
100
AcDbEntity
  8
DEFAULT
100
AcDbText
 10
19.4989
 20
33.917
 30
0.0
 40
1.1368
  1
solstice
  7
ARIAL_BOLD
100
AcDbText
  0
LINE
  5
67
330
18
100
AcDbEntity
  8
DEFAULT
 62
     5
100
AcDbLine
 10
24.9964
 20
34.3398
 30
0.0
 11
118.989
 21
-14.6448
 31
0.0
  0
POINT
  5
68
330
18
100
AcDbEntity
  8
DEFAULT
 62
     1
100
AcDbPoint
 10
66.6468
 20
-14.6448
 30
0.0
  0
POINT
  5
69
330
18
100
AcDbEntity
  8
DEFAULT
 62
     1
100
AcDbPoint
 10
60.0426
 20
-14.6448
 30
0.0
  0
POINT
  5
6A
330
18
100
AcDbEntity
  8
DEFAULT
 62
     1
100
AcDbPoint
 10
92.61020000000001
 20
-14.6448
 30
0.0
  0
POINT
  5
6B
330
18
100
AcDbEntity
  8
DEFAULT
 62
     1
100
AcDbPoint
 10
118.989
 20
-14.6448
 30
0.0
  0
POINT
  5
6C
330
18
100
AcDbEntity
  8
DEFAULT
 62
     1
100
AcDbPoint
 10
109.5365
 20
-14.6448
 30
0.0
  0
LINE
  5
6D
330
18
100
AcDbEntity
  8
DEFAULT
 62
     5
100
AcDbLine
 10
40.4131
 20
46.8394
 30
0.0
 11
57.572
 21
-14.6449
 31
0.0
  0
LINE
  5
6E
330
18
100
AcDbEntity
  8
DEFAULT
100
AcDbLine
 10
19.6775
 20
2.4932
 30
0.0
 11
44.1592
 21
22.3415
 31
0.0
  0
SOLID
  5
6F
330
18
100
AcDbEntity
  8
DEFAULT
 62
     3
100
AcDbTrace
 10
33.757
 20
-11.2745
 30
0.0
 11
33.757
 21
-11.3396
 31
0.0
 12
33.5721
 22
-11.3071
 32
0.0
 13
33.5721
 23
-11.3071
 33
0.0
  0
SOLID
  5
70
330
18
100
AcDbEntity
  8
DEFAULT
 62
     3
100
AcDbTrace
 10
57.387
 20
-11.3396
 30
0.0
 11
57.387
 21
-11.2745
 31
0.0
 12
57.572
 22
-11.3071
 32
0.0
 13
57.572
 23
-11.3071
 33
0.0
  0
LINE
  5
71
330
18
100
AcDbEntity
  8
DEFAULT
 62
     3
100
AcDbLine
 10
33.5721
 20
-11.3071
 30
0.0
 11
43.6909
 21
-11.3071
 31
0.0
  0
LINE
  5
72
330
18
100
AcDbEntity
  8
DEFAULT
 62
     3
100
AcDbLine
 10
46.1779
 20
-11.3071
 30
0.0
 11
57.572
 21
-11.3071
 31
0.0
  0
TEXT
  5
73
330
18
100
AcDbEntity
  8
DEFAULT
 62
     3
100
AcDbText
 10
43.7535
 20
-12.1129
 30
0.0
 40
1.5789
  1
24
  7
ARIAL_BOLD
100
AcDbText
  0
LINE
  5
74
330
18
100
AcDbEntity
  8
DEFAULT
 62
     3
100
AcDbLine
 10
33.5721
 20
-14.5823
 30
0.0
 11
33.5721
 21
-11.1821
 31
0.0
  0
LINE
  5
75
330
18
100
AcDbEntity
  8
DEFAULT
 62
     3
100
AcDbLine
 10
57.572
 20
-14.5824
 30
0.0
 11
57.572
 21
-11.1821
 31
0.0
  0
ARC
  5
76
330
18
100
AcDbEntity
  8
DEFAULT
 62
     3
100
AcDbCircle
 10
28.4227
 20
-14.6449
 30
0.0
 40
41.0943
100
AcDbArc
 50
156.3014
 51
180.0
  0
ARC
  5
77
330
18
100
AcDbEntity
  8
DEFAULT
 62
     3
100
AcDbCircle
 10
28.4227
 20
-14.6449
 30
0.0
 40
41.0943
100
AcDbArc
 50
128.9957
 51
150.3969
  0
SOLID
  5
78
330
18
100
AcDbEntity
  8
DEFAULT
 62
     3
100
AcDbTrace
 10
2.4244
 20
17.1253
 30
0.0
 11
2.3821
 21
17.1831
 31
0.0
 12
2.5675
 22
17.2885
 32
0.0
 13
2.5675
 23
17.2885
 33
0.0
  0
SOLID
  5
79
330
18
100
AcDbEntity
  8
DEFAULT
 62
     3
100
AcDbTrace
 10
-12.7031
 20
-14.4326
 30
0.0
 11
-12.6362
 21
-14.4329
 31
0.0
 12
-12.6707
 22
-14.6449
 32
0.0
 13
-12.6707
 23
-14.6449
 33
0.0
  0
TEXT
  5
7A
330
18
100
AcDbEntity
  8
DEFAULT
 62
     3
100
AcDbText
 10
-13.7114
 20
2.392
 30
0.0
 40
2.7368
  1
50.97°
  7
ARIAL_BOLD
100
AcDbText
  0
ARC
  5
7B
330
18
100
AcDbEntity
  8
DEFAULT
 62
     3
100
AcDbCircle
 10
3.3016
 20
-14.6448
 30
0.0
 40
44.8473
100
AcDbArc
 50
20.0932
 51
38.9957
  0
ARC
  5
7C
330
18
100
AcDbEntity
  8
DEFAULT
 62
     3
100
AcDbCircle
 10
3.3016
 20
-14.6448
 30
0.0
 40
44.8473
100
AcDbArc
 50
0.0
 51
15.4016
  0
SOLID
  5
7D
330
18
100
AcDbEntity
  8
DEFAULT
 62
     3
100
AcDbTrace
 10
48.1225
 20
-14.4907
 30
0.0
 11
48.1712
 21
-14.4903
 31
0.0
 12
48.148
 22
-14.6448
 32
0.0
 13
48.148
 23
-14.6448
 33
0.0
  0
SOLID
  5
7E
330
18
100
AcDbEntity
  8
DEFAULT
 62
     3
100
AcDbTrace
 10
38.2666
 20
13.468
 30
0.0
 11
38.2286
 21
13.4341
 31
0.0
 12
38.1514
 22
13.5717
 32
0.0
 13
38.1514
 23
13.5717
 33
0.0
  0
TEXT
  5
7F
330
18
100
AcDbEntity
  8
DEFAULT
 62
     3
100
AcDbText
 10
39.9844
 20
-2.2669
 30
0.0
 40
2.5429
  1
39.032°
  7
ARIAL_BOLD
100
AcDbText
  0
LINE
  5
80
330
18
100
AcDbEntity
  8
DEFAULT
 62
     3
100
AcDbLine
 10
27.6054
 20
5.0587
 30
0.0
 11
38.2485
 21
13.6503
 31
0.0
  0
POINT
  5
81
330
18
100
AcDbEntity
  8
DEFAULT
 62
     1
100
AcDbPoint
 10
69.5878
 20
-4.9028
 30
0.0
  0
POINT
  5
82
330
18
100
AcDbEntity
  8
DEFAULT
 62
     1
100
AcDbPoint
 10
62.1257
 20
-10.953
 30
0.0
  0
POINT
  5
83
330
18
100
AcDbEntity
  8
DEFAULT
 62
     1
100
AcDbPoint
 10
58.2892
 20
-14.0635
 30
0.0
  0
POINT
  5
84
330
18
100
AcDbEntity
  8
DEFAULT
 62
     1
100
AcDbPoint
 10
57.572
 20
-14.6449
 30
0.0
  0
POINT
  5
85
330
18
100
AcDbEntity
  8
DEFAULT
 62
     1
100
AcDbPoint
 10
69.5878
 20
-4.9028
 30
0.0
  0
POINT
  5
86
330
18
100
AcDbEntity
  8
DEFAULT
 62
     3
100
AcDbPoint
 10
57.866
 20
-13.4839
 30
0.0
  0
POINT
  5
87
330
18
100
AcDbEntity
  8
DEFAULT
 62
     1
100
AcDbPoint
 10
118.989
 20
-14.6448
 30
0.0
  0
POINT
  5
88
330
18
100
AcDbEntity
  8
DEFAULT
 62
     1
100
AcDbPoint
 10
77.4881
 20
-14.6448
 30
0.0
  0
POINT
  5
89
330
18
100
AcDbEntity
  8
DEFAULT
 62
     1
100
AcDbPoint
 10
47.1189
 20
22.8107
 30
0.0
  0
CIRCLE
  5
8A
330
18
100
AcDbEntity
  8
DEFAULT
100
AcDbCircle
 10
118.989
 20
-14.6448
 30
0.0
 40
0.25
  0
CIRCLE
  5
8B
330
18
100
AcDbEntity
  8
DEFAULT
100
AcDbCircle
 10
77.4881
 20
-14.6448
 30
0.0
 40
0.25
  0
LINE
  5
8C
330
18
100
AcDbEntity
  8
DEFAULT
 62
     5
100
AcDbLine
 10
31.4073
 20
42.1884
 30
0.0
 11
77.4881
 21
-14.6448
 31
0.0
  0
POINT
  5
8D
330
18
100
AcDbEntity
  8
DEFAULT
 62
     1
100
AcDbPoint
 10
117.663
 20
-14.6448
 30
0.0
  0
POINT
  5
8E
330
18
100
AcDbEntity
  8
DEFAULT
 62
     1
100
AcDbPoint
 10
114.2027
 20
-14.6448
 30
0.0
  0
POINT
  5
8F
330
18
100
AcDbEntity
  8
DEFAULT
 62
     1
100
AcDbPoint
 10
102.9283
 20
-14.6448
 30
0.0
  0
POINT
  5
90
330
18
100
AcDbEntity
  8
DEFAULT
 62
     1
100
AcDbPoint
 10
97.633
 20
-14.6448
 30
0.0
  0
POINT
  5
91
330
18
100
AcDbEntity
  8
DEFAULT
 62
     1
100
AcDbPoint
 10
86.76220000000001
 20
-14.6448
 30
0.0
  0
POINT
  5
92
330
18
100
AcDbEntity
  8
DEFAULT
 62
     1
100
AcDbPoint
 10
81.0981
 20
-14.6448
 30
0.0
  0
POINT
  5
93
330
18
100
AcDbEntity
  8
DEFAULT
 62
     1
100
AcDbPoint
 10
72.865
 20
-14.6448
 30
0.0
  0
POINT
  5
94
330
18
100
AcDbEntity
  8
DEFAULT
 62
     1
100
AcDbPoint
 10
63.7666
 20
-14.6448
 30
0.0
  0
POINT
  5
95
330
18
100
AcDbEntity
  8
DEFAULT
 62
     1
100
AcDbPoint
 10
61.5218
 20
-14.6448
 30
0.0
  0
LINE
  5
96
330
18
100
AcDbEntity
  8
DEFAULT
100
AcDbLine
 10
57.8112
 20
-14.6448
 30
0.0
 11
57.8112
 21
-12.6449
 31
0.0
  0
LINE
  5
97
330
18
100
AcDbEntity
  8
DEFAULT
100
AcDbLine
 10
61.5218
 20
-14.6448
 30
0.0
 11
61.5218
 21
-12.6449
 31
0.0
  0
LINE
  5
98
330
18
100
AcDbEntity
  8
DEFAULT
100
AcDbLine
 10
81.0981
 20
-14.6448
 30
0.0
 11
81.0981
 21
-12.6449
 31
0.0
  0
LINE
  5
99
330
18
100
AcDbEntity
  8
DEFAULT
100
AcDbLine
 10
97.633
 20
-14.6448
 30
0.0
 11
97.633
 21
-12.6449
 31
0.0
  0
LINE
  5
9A
330
18
100
AcDbEntity
  8
DEFAULT
100
AcDbLine
 10
114.2027
 20
-14.6448
 30
0.0
 11
114.2027
 21
-12.6449
 31
0.0
  0
LINE
  5
9B
330
18
100
AcDbEntity
  8
DEFAULT
100
AcDbLine
 10
58.4653
 20
-16.6449
 30
0.0
 11
58.4653
 21
-14.6448
 31
0.0
  0
LINE
  5
9C
330
18
100
AcDbEntity
  8
DEFAULT
100
AcDbLine
 10
63.7666
 20
-16.6449
 30
0.0
 11
63.7666
 21
-14.6448
 31
0.0
  0
LINE
  5
9D
330
18
100
AcDbEntity
  8
DEFAULT
100
AcDbLine
 10
72.865
 20
-16.6449
 30
0.0
 11
72.865
 21
-14.6448
 31
0.0
  0
LINE
  5
9E
330
18
100
AcDbEntity
  8
DEFAULT
100
AcDbLine
 10
86.76220000000001
 20
-16.6449
 30
0.0
 11
86.76220000000001
 21
-14.6448
 31
0.0
  0
LINE
  5
9F
330
18
100
AcDbEntity
  8
DEFAULT
100
AcDbLine
 10
102.9283
 20
-16.6449
 30
0.0
 11
102.9283
 21
-14.6448
 31
0.0
  0
LINE
  5
A0
330
18
100
AcDbEntity
  8
DEFAULT
100
AcDbLine
 10
117.663
 20
-16.6449
 30
0.0
 11
117.663
 21
-14.6448
 31
0.0
  0
LINE
  5
A1
330
18
100
AcDbEntity
  8
DEFAULT
100
AcDbLine
 10
116.1106
 20
-15.645
 30
0.0
 11
116.1106
 21
-14.645
 31
0.0
  0
LINE
  5
A2
330
18
100
AcDbEntity
  8
DEFAULT
100
AcDbLine
 10
112.422
 20
-15.645
 30
0.0
 11
112.422
 21
-14.645
 31
0.0
  0
LINE
  5
A3
330
18
100
AcDbEntity
  8
DEFAULT
100
AcDbLine
 10
108.755
 20
-15.645
 30
0.0
 11
108.755
 21
-14.645
 31
0.0
  0
LINE
  5
A4
330
18
100
AcDbEntity
  8
DEFAULT
100
AcDbLine
 10
104.7151
 20
-15.645
 30
0.0
 11
104.7151
 21
-14.645
 31
0.0
  0
LINE
  5
A5
330
18
100
AcDbEntity
  8
DEFAULT
100
AcDbLine
 10
98.717
 20
-15.645
 30
0.0
 11
98.717
 21
-14.645
 31
0.0
  0
LINE
  5
A6
330
18
100
AcDbEntity
  8
DEFAULT
100
AcDbLine
 10
94.5688
 20
-15.645
 30
0.0
 11
94.5688
 21
-14.645
 31
0.0
  0
LINE
  5
A7
330
18
100
AcDbEntity
  8
DEFAULT
100
AcDbLine
 10
90.5612
 20
-15.645
 30
0.0
 11
90.5612
 21
-14.645
 31
0.0
  0
LINE
  5
A8
330
18
100
AcDbEntity
  8
DEFAULT
100
AcDbLine
 10
83.1936
 20
-15.645
 30
0.0
 11
83.1936
 21
-14.645
 31
0.0
  0
LINE
  5
A9
330
18
100
AcDbEntity
  8
DEFAULT
100
AcDbLine
 10
79.8899
 20
-15.645
 30
0.0
 11
79.8899
 21
-14.645
 31
0.0
  0
LINE
  5
AA
330
18
100
AcDbEntity
  8
DEFAULT
100
AcDbLine
 10
76.8207
 20
-15.645
 30
0.0
 11
76.8207
 21
-14.645
 31
0.0
  0
LINE
  5
AB
330
18
100
AcDbEntity
  8
DEFAULT
100
AcDbLine
 10
73.9978
 20
-15.645
 30
0.0
 11
73.9978
 21
-14.645
 31
0.0
  0
LINE
  5
AC
330
18
100
AcDbEntity
  8
DEFAULT
100
AcDbLine
 10
70.3727
 20
-15.645
 30
0.0
 11
70.3727
 21
-14.645
 31
0.0
  0
LINE
  5
AD
330
18
100
AcDbEntity
  8
DEFAULT
100
AcDbLine
 10
68.1151
 20
-15.645
 30
0.0
 11
68.1151
 21
-14.645
 31
0.0
  0
LINE
  5
AE
330
18
100
AcDbEntity
  8
DEFAULT
100
AcDbLine
 10
66.0752
 20
-15.645
 30
0.0
 11
66.0752
 21
-14.645
 31
0.0
  0
LINE
  5
AF
330
18
100
AcDbEntity
  8
DEFAULT
100
AcDbLine
 10
64.2539
 20
-15.645
 30
0.0
 11
64.2539
 21
-14.645
 31
0.0
  0
LINE
  5
B0
330
18
100
AcDbEntity
  8
DEFAULT
100
AcDbLine
 10
62.2164
 20
-15.645
 30
0.0
 11
62.2164
 21
-14.645
 31
0.0
  0
LINE
  5
B1
330
18
100
AcDbEntity
  8
DEFAULT
100
AcDbLine
 10
60.8802
 20
-15.645
 30
0.0
 11
60.8802
 21
-14.645
 31
0.0
  0
LINE
  5
B2
330
18
100
AcDbEntity
  8
DEFAULT
100
AcDbLine
 10
59.7629
 20
-15.645
 30
0.0
 11
59.7629
 21
-14.645
 31
0.0
  0
LINE
  5
B3
330
18
100
AcDbEntity
  8
DEFAULT
100
AcDbLine
 10
57.9955
 20
-15.645
 30
0.0
 11
57.9955
 21
-14.645
 31
0.0
  0
LINE
  5
B4
330
18
100
AcDbEntity
  8
DEFAULT
100
AcDbLine
 10
57.6704
 20
-15.645
 30
0.0
 11
57.6704
 21
-14.645
 31
0.0
  0
LINE
  5
B5
330
18
100
AcDbEntity
  8
DEFAULT
100
AcDbLine
 10
57.5788
 20
-15.645
 30
0.0
 11
57.5788
 21
-14.645
 31
0.0
  0
LINE
  5
B6
330
18
100
AcDbEntity
  8
DEFAULT
100
AcDbLine
 10
69.41889999999999
 20
-14.6448
 30
0.0
 11
69.41889999999999
 21
-12.6449
 31
0.0
  0
LINE
  5
B7
330
18
100
AcDbEntity
  8
DEFAULT
100
AcDbLine
 10
118.9893
 20
-14.6448
 30
0.0
 11
118.9893
 21
-13.6448
 31
0.0
  0
LINE
  5
B8
330
18
100
AcDbEntity
  8
DEFAULT
100
AcDbLine
 10
118.4133
 20
-14.6448
 30
0.0
 11
118.4133
 21
-13.6448
 31
0.0
  0
LINE
  5
B9
330
18
100
AcDbEntity
  8
DEFAULT
100
AcDbLine
 10
116.7794
 20
-14.6448
 30
0.0
 11
116.7794
 21
-13.6448
 31
0.0
  0
LINE
  5
BA
330
18
100
AcDbEntity
  8
DEFAULT
100
AcDbLine
 10
113.3034
 20
-14.6448
 30
0.0
 11
113.3034
 21
-13.6448
 31
0.0
  0
LINE
  5
BB
330
18
100
AcDbEntity
  8
DEFAULT
100
AcDbLine
 10
105.9206
 20
-14.6448
 30
0.0
 11
105.9206
 21
-13.6448
 31
0.0
  0
LINE
  5
BC
330
18
100
AcDbEntity
  8
DEFAULT
100
AcDbLine
 10
109.8352
 20
-14.6448
 30
0.0
 11
109.8352
 21
-13.6448
 31
0.0
  0
LINE
  5
BD
330
18
100
AcDbEntity
  8
DEFAULT
100
AcDbLine
 10
101.8071
 20
-14.6448
 30
0.0
 11
101.8071
 21
-13.6448
 31
0.0
  0
LINE
  5
BE
330
18
100
AcDbEntity
  8
DEFAULT
100
AcDbLine
 10
95.8858
 20
-14.6448
 30
0.0
 11
95.8858
 21
-13.6448
 31
0.0
  0
LINE
  5
BF
330
18
100
AcDbEntity
  8
DEFAULT
100
AcDbLine
 10
91.8732
 20
-14.6448
 30
0.0
 11
91.8732
 21
-13.6448
 31
0.0
  0
LINE
  5
C0
330
18
100
AcDbEntity
  8
DEFAULT
100
AcDbLine
 10
88.05580000000001
 20
-14.6448
 30
0.0
 11
88.05580000000001
 21
-13.6448
 31
0.0
  0
LINE
  5
C1
330
18
100
AcDbEntity
  8
DEFAULT
100
AcDbLine
 10
84.4631
 20
-14.6448
 30
0.0
 11
84.4631
 21
-13.6448
 31
0.0
  0
LINE
  5
C2
330
18
100
AcDbEntity
  8
DEFAULT
100
AcDbLine
 10
80.19159999999999
 20
-14.6448
 30
0.0
 11
80.19159999999999
 21
-13.6448
 31
0.0
  0
LINE
  5
C3
330
18
100
AcDbEntity
  8
DEFAULT
100
AcDbLine
 10
77.1418
 20
-14.6448
 30
0.0
 11
77.1418
 21
-13.6448
 31
0.0
  0
LINE
  5
C4
330
18
100
AcDbEntity
  8
DEFAULT
100
AcDbLine
 10
74.3453
 20
-14.6448
 30
0.0
 11
74.3453
 21
-13.6448
 31
0.0
  0
LINE
  5
C5
330
18
100
AcDbEntity
  8
DEFAULT
100
AcDbLine
 10
71.7637
 20
-14.6448
 30
0.0
 11
71.7637
 21
-13.6448
 31
0.0
  0
LINE
  5
C6
330
18
100
AcDbEntity
  8
DEFAULT
100
AcDbLine
 10
68.4688
 20
-14.6448
 30
0.0
 11
68.4688
 21
-13.6448
 31
0.0
  0
LINE
  5
C7
330
18
100
AcDbEntity
  8
DEFAULT
100
AcDbLine
 10
66.4211
 20
-14.6448
 30
0.0
 11
66.4211
 21
-13.6448
 31
0.0
  0
LINE
  5
C8
330
18
100
AcDbEntity
  8
DEFAULT
100
AcDbLine
 10
64.5796
 20
-14.6448
 30
0.0
 11
64.5796
 21
-13.6448
 31
0.0
  0
LINE
  5
C9
330
18
100
AcDbEntity
  8
DEFAULT
100
AcDbLine
 10
62.9429
 20
-14.6448
 30
0.0
 11
62.9429
 21
-13.6448
 31
0.0
  0
LINE
  5
CA
330
18
100
AcDbEntity
  8
DEFAULT
100
AcDbLine
 10
60.969
 20
-14.6448
 30
0.0
 11
60.969
 21
-13.6448
 31
0.0
  0
LINE
  5
CB
330
18
100
AcDbEntity
  8
DEFAULT
100
AcDbLine
 10
59.8504
 20
-14.6448
 30
0.0
 11
59.8504
 21
-13.6448
 31
0.0
  0
LINE
  5
CC
330
18
100
AcDbEntity
  8
DEFAULT
100
AcDbLine
 10
58.9452
 20
-14.6448
 30
0.0
 11
58.9452
 21
-13.6448
 31
0.0
  0
LINE
  5
CD
330
18
100
AcDbEntity
  8
DEFAULT
100
AcDbLine
 10
58.2655
 20
-14.6448
 30
0.0
 11
58.2655
 21
-13.6448
 31
0.0
  0
LINE
  5
CE
330
18
100
AcDbEntity
  8
DEFAULT
100
AcDbLine
 10
57.7338
 20
-14.6448
 30
0.0
 11
57.7338
 21
-13.6448
 31
0.0
  0
LINE
  5
CF
330
18
100
AcDbEntity
  8
DEFAULT
100
AcDbLine
 10
58.8802
 20
-15.6448
 30
0.0
 11
58.8802
 21
-14.6448
 31
0.0
  0
CIRCLE
  5
D0
330
18
100
AcDbEntity
  8
DEFAULT
100
AcDbCircle
 10
57.5788
 20
-14.645
 30
0.0
 40
0.25
  0
POINT
  5
D1
330
18
100
AcDbEntity
  8
DEFAULT
 62
     1
100
AcDbPoint
 10
164.6662
 20
8.0015
 30
0.0
  0
POINT
  5
D2
330
18
100
AcDbEntity
  8
DEFAULT
 62
     1
100
AcDbPoint
 10
164.6662
 20
-1.0747
 30
0.0
  0
POINT
  5
D3
330
18
100
AcDbEntity
  8
DEFAULT
 62
     1
100
AcDbPoint
 10
164.6662
 20
5.5301
 30
0.0
  0
POINT
  5
D4
330
18
100
AcDbEntity
  8
DEFAULT
 62
     1
100
AcDbPoint
 10
164.6662
 20
-27.0433
 30
0.0
  0
POINT
  5
D5
330
18
100
AcDbEntity
  8
DEFAULT
 62
     1
100
AcDbPoint
 10
164.6662
 20
-53.4271
 30
0.0
  0
POINT
  5
D6
330
18
100
AcDbEntity
  8
DEFAULT
 62
     1
100
AcDbPoint
 10
164.6662
 20
-43.9729
 30
0.0
  0
POINT
  5
D7
330
18
100
AcDbEntity
  8
DEFAULT
 62
     1
100
AcDbPoint
 10
174.4096
 20
-4.0165
 30
0.0
  0
POINT
  5
D8
330
18
100
AcDbEntity
  8
DEFAULT
 62
     1
100
AcDbPoint
 10
168.3586
 20
3.4469
 30
0.0
  0
POINT
  5
D9
330
18
100
AcDbEntity
  8
DEFAULT
 62
     1
100
AcDbPoint
 10
165.247
 20
7.2839
 30
0.0
  0
POINT
  5
DA
330
18
100
AcDbEntity
  8
DEFAULT
 62
     1
100
AcDbPoint
 10
164.6662
 20
8.0015
 30
0.0
  0
POINT
  5
DB
330
18
100
AcDbEntity
  8
DEFAULT
 62
     1
100
AcDbPoint
 10
174.4096
 20
-4.0165
 30
0.0
  0
POINT
  5
DC
330
18
100
AcDbEntity
  8
DEFAULT
 62
     3
100
AcDbPoint
 10
165.8272
 20
7.7075
 30
0.0
  0
POINT
  5
DD
330
18
100
AcDbEntity
  8
DEFAULT
 62
     1
100
AcDbPoint
 10
164.6662
 20
-53.4271
 30
0.0
  0
POINT
  5
DE
330
18
100
AcDbEntity
  8
DEFAULT
 62
     1
100
AcDbPoint
 10
164.6662
 20
-11.9179
 30
0.0
  0
ELLIPSE
  5
DF
330
18
100
AcDbEntity
  8
DEFAULT
100
AcDbEllipse
 10
164.6662
 20
-53.4274
 30
0.0
 11
0.0
 21
0.2499
 31
0.0
210
0.0
220
0.0
230
1.0
 40
0.9988
 41
0.0
 42
6.283185307179586
  0
ELLIPSE
  5
E0
330
18
100
AcDbEntity
  8
DEFAULT
100
AcDbEllipse
 10
164.6662
 20
-11.9182
 30
0.0
 11
0.0
 21
0.2499
 31
0.0
210
0.0
220
0.0
230
1.0
 40
0.9988
 41
0.0
 42
6.283185307179586
  0
POINT
  5
E1
330
18
100
AcDbEntity
  8
DEFAULT
 62
     1
100
AcDbPoint
 10
164.6662
 20
-52.1011
 30
0.0
  0
POINT
  5
E2
330
18
100
AcDbEntity
  8
DEFAULT
 62
     1
100
AcDbPoint
 10
164.6662
 20
-48.6403
 30
0.0
  0
POINT
  5
E3
330
18
100
AcDbEntity
  8
DEFAULT
 62
     1
100
AcDbPoint
 10
164.6662
 20
-37.3633
 30
0.0
  0
POINT
  5
E4
330
18
100
AcDbEntity
  8
DEFAULT
 62
     1
100
AcDbPoint
 10
164.6662
 20
-32.0671
 30
0.0
  0
POINT
  5
E5
330
18
100
AcDbEntity
  8
DEFAULT
 62
     1
100
AcDbPoint
 10
164.6662
 20
-21.1939
 30
0.0
  0
POINT
  5
E6
330
18
100
AcDbEntity
  8
DEFAULT
 62
     1
100
AcDbPoint
 10
164.6662
 20
-15.5287
 30
0.0
  0
POINT
  5
E7
330
18
100
AcDbEntity
  8
DEFAULT
 62
     1
100
AcDbPoint
 10
164.6662
 20
-7.2943
 30
0.0
  0
POINT
  5
E8
330
18
100
AcDbEntity
  8
DEFAULT
 62
     1
100
AcDbPoint
 10
164.6662
 20
1.8053
 30
0.0
  0
POINT
  5
E9
330
18
100
AcDbEntity
  8
DEFAULT
 62
     1
100
AcDbPoint
 10
164.6662
 20
4.0505
 30
0.0
  0
LINE
  5
EA
330
18
100
AcDbEntity
  8
DEFAULT
100
AcDbLine
 10
164.6662
 20
7.7621
 30
0.0
 11
166.666
 21
7.7621
 31
0.0
  0
LINE
  5
EB
330
18
100
AcDbEntity
  8
DEFAULT
100
AcDbLine
 10
164.6662
 20
4.0505
 30
0.0
 11
166.666
 21
4.0505
 31
0.0
  0
LINE
  5
EC
330
18
100
AcDbEntity
  8
DEFAULT
100
AcDbLine
 10
164.6662
 20
-15.5287
 30
0.0
 11
166.666
 21
-15.5287
 31
0.0
  0
LINE
  5
ED
330
18
100
AcDbEntity
  8
DEFAULT
100
AcDbLine
 10
164.6662
 20
-32.0671
 30
0.0
 11
166.666
 21
-32.0671
 31
0.0
  0
LINE
  5
EE
330
18
100
AcDbEntity
  8
DEFAULT
100
AcDbLine
 10
164.6662
 20
-48.6403
 30
0.0
 11
166.666
 21
-48.6403
 31
0.0
  0
LINE
  5
EF
330
18
100
AcDbEntity
  8
DEFAULT
100
AcDbLine
 10
162.6658
 20
7.1081
 30
0.0
 11
164.6662
 21
7.1081
 31
0.0
  0
LINE
  5
F0
330
18
100
AcDbEntity
  8
DEFAULT
100
AcDbLine
 10
162.6658
 20
1.8053
 30
0.0
 11
164.6662
 21
1.8053
 31
0.0
  0
LINE
  5
F1
330
18
100
AcDbEntity
  8
DEFAULT
100
AcDbLine
 10
162.6658
 20
-7.2943
 30
0.0
 11
164.6662
 21
-7.2943
 31
0.0
  0
LINE
  5
F2
330
18
100
AcDbEntity
  8
DEFAULT
100
AcDbLine
 10
162.6658
 20
-21.1939
 30
0.0
 11
164.6662
 21
-21.1939
 31
0.0
  0
LINE
  5
F3
330
18
100
AcDbEntity
  8
DEFAULT
100
AcDbLine
 10
162.6658
 20
-37.3633
 30
0.0
 11
164.6662
 21
-37.3633
 31
0.0
  0
LINE
  5
F4
330
18
100
AcDbEntity
  8
DEFAULT
100
AcDbLine
 10
162.6658
 20
-52.1011
 30
0.0
 11
164.6662
 21
-52.1011
 31
0.0
  0
LINE
  5
F5
330
18
100
AcDbEntity
  8
DEFAULT
100
AcDbLine
 10
163.666
 20
-50.5483
 30
0.0
 11
164.6662
 21
-50.5483
 31
0.0
  0
LINE
  5
F6
330
18
100
AcDbEntity
  8
DEFAULT
100
AcDbLine
 10
163.666
 20
-46.8589
 30
0.0
 11
164.6662
 21
-46.8589
 31
0.0
  0
LINE
  5
F7
330
18
100
AcDbEntity
  8
DEFAULT
100
AcDbLine
 10
163.666
 20
-43.1911
 30
0.0
 11
164.6662
 21
-43.1911
 31
0.0
  0
LINE
  5
F8
330
18
100
AcDbEntity
  8
DEFAULT
100
AcDbLine
 10
163.666
 20
-39.1507
 30
0.0
 11
164.6662
 21
-39.1507
 31
0.0
  0
LINE
  5
F9
330
18
100
AcDbEntity
  8
DEFAULT
100
AcDbLine
 10
163.666
 20
-33.1513
 30
0.0
 11
164.6662
 21
-33.1513
 31
0.0
  0
LINE
  5
FA
330
18
100
AcDbEntity
  8
DEFAULT
100
AcDbLine
 10
163.666
 20
-29.0023
 30
0.0
 11
164.6662
 21
-29.0023
 31
0.0
  0
LINE
  5
FB
330
18
100
AcDbEntity
  8
DEFAULT
100
AcDbLine
 10
163.666
 20
-24.9937
 30
0.0
 11
164.6662
 21
-24.9937
 31
0.0
  0
LINE
  5
FC
330
18
100
AcDbEntity
  8
DEFAULT
100
AcDbLine
 10
163.666
 20
-17.6251
 30
0.0
 11
164.6662
 21
-17.6251
 31
0.0
  0
LINE
  5
FD
330
18
100
AcDbEntity
  8
DEFAULT
100
AcDbLine
 10
163.666
 20
-14.3203
 30
0.0
 11
164.6662
 21
-14.3203
 31
0.0
  0
LINE
  5
FE
330
18
100
AcDbEntity
  8
DEFAULT
100
AcDbLine
 10
163.666
 20
-11.2507
 30
0.0
 11
164.6662
 21
-11.2507
 31
0.0
  0
LINE
  5
FF
330
18
100
AcDbEntity
  8
DEFAULT
100
AcDbLine
 10
163.666
 20
-8.427099999999999
 30
0.0
 11
164.6662
 21
-8.427099999999999
 31
0.0
  0
LINE
  5
100
330
18
100
AcDbEntity
  8
DEFAULT
100
AcDbLine
 10
163.666
 20
-4.8013
 30
0.0
 11
164.6662
 21
-4.8013
 31
0.0
  0
LINE
  5
101
330
18
100
AcDbEntity
  8
DEFAULT
100
AcDbLine
 10
163.666
 20
-2.5435
 30
0.0
 11
164.6662
 21
-2.5435
 31
0.0
  0
LINE
  5
102
330
18
100
AcDbEntity
  8
DEFAULT
100
AcDbLine
 10
163.666
 20
-0.5029
 30
0.0
 11
164.6662
 21
-0.5029
 31
0.0
  0
LINE
  5
103
330
18
100
AcDbEntity
  8
DEFAULT
100
AcDbLine
 10
163.666
 20
1.3181
 30
0.0
 11
164.6662
 21
1.3181
 31
0.0
  0
LINE
  5
104
330
18
100
AcDbEntity
  8
DEFAULT
100
AcDbLine
 10
163.666
 20
3.3557
 30
0.0
 11
164.6662
 21
3.3557
 31
0.0
  0
LINE
  5
105
330
18
100
AcDbEntity
  8
DEFAULT
100
AcDbLine
 10
163.666
 20
4.6925
 30
0.0
 11
164.6662
 21
4.6925
 31
0.0
  0
LINE
  5
106
330
18
100
AcDbEntity
  8
DEFAULT
100
AcDbLine
 10
163.666
 20
5.8097
 30
0.0
 11
164.6662
 21
5.8097
 31
0.0
  0
LINE
  5
107
330
18
100
AcDbEntity
  8
DEFAULT
100
AcDbLine
 10
163.666
 20
7.5779
 30
0.0
 11
164.6662
 21
7.5779
 31
0.0
  0
LINE
  5
108
330
18
100
AcDbEntity
  8
DEFAULT
100
AcDbLine
 10
163.666
 20
7.9031
 30
0.0
 11
164.6662
 21
7.9031
 31
0.0
  0
LINE
  5
109
330
18
100
AcDbEntity
  8
DEFAULT
100
AcDbLine
 10
163.666
 20
7.9943
 30
0.0
 11
164.6662
 21
7.9943
 31
0.0
  0
LINE
  5
10A
330
18
100
AcDbEntity
  8
DEFAULT
100
AcDbLine
 10
164.6662
 20
-3.8473
 30
0.0
 11
166.666
 21
-3.8473
 31
0.0
  0
LINE
  5
10B
330
18
100
AcDbEntity
  8
DEFAULT
100
AcDbLine
 10
164.6662
 20
-53.4277
 30
0.0
 11
165.6658
 21
-53.4277
 31
0.0
  0
LINE
  5
10C
330
18
100
AcDbEntity
  8
DEFAULT
100
AcDbLine
 10
164.6662
 20
-52.8517
 30
0.0
 11
165.6658
 21
-52.8517
 31
0.0
  0
LINE
  5
10D
330
18
100
AcDbEntity
  8
DEFAULT
100
AcDbLine
 10
164.6662
 20
-51.2173
 30
0.0
 11
165.6658
 21
-51.2173
 31
0.0
  0
LINE
  5
10E
330
18
100
AcDbEntity
  8
DEFAULT
100
AcDbLine
 10
164.6662
 20
-47.7409
 30
0.0
 11
165.6658
 21
-47.7409
 31
0.0
  0
LINE
  5
10F
330
18
100
AcDbEntity
  8
DEFAULT
100
AcDbLine
 10
164.6662
 20
-40.3561
 30
0.0
 11
165.6658
 21
-40.3561
 31
0.0
  0
LINE
  5
110
330
18
100
AcDbEntity
  8
DEFAULT
100
AcDbLine
 10
164.6662
 20
-44.2717
 30
0.0
 11
165.6658
 21
-44.2717
 31
0.0
  0
LINE
  5
111
330
18
100
AcDbEntity
  8
DEFAULT
100
AcDbLine
 10
164.6662
 20
-36.2419
 30
0.0
 11
165.6658
 21
-36.2419
 31
0.0
  0
LINE
  5
112
330
18
100
AcDbEntity
  8
DEFAULT
100
AcDbLine
 10
164.6662
 20
-30.3193
 30
0.0
 11
165.6658
 21
-30.3193
 31
0.0
  0
LINE
  5
113
330
18
100
AcDbEntity
  8
DEFAULT
100
AcDbLine
 10
164.6662
 20
-26.3059
 30
0.0
 11
165.6658
 21
-26.3059
 31
0.0
  0
LINE
  5
114
330
18
100
AcDbEntity
  8
DEFAULT
100
AcDbLine
 10
164.6662
 20
-22.4881
 30
0.0
 11
165.6658
 21
-22.4881
 31
0.0
  0
LINE
  5
115
330
18
100
AcDbEntity
  8
DEFAULT
100
AcDbLine
 10
164.6662
 20
-18.8947
 30
0.0
 11
165.6658
 21
-18.8947
 31
0.0
  0
LINE
  5
116
330
18
100
AcDbEntity
  8
DEFAULT
100
AcDbLine
 10
164.6662
 20
-14.6221
 30
0.0
 11
165.6658
 21
-14.6221
 31
0.0
  0
LINE
  5
117
330
18
100
AcDbEntity
  8
DEFAULT
100
AcDbLine
 10
164.6662
 20
-11.5717
 30
0.0
 11
165.6658
 21
-11.5717
 31
0.0
  0
LINE
  5
118
330
18
100
AcDbEntity
  8
DEFAULT
100
AcDbLine
 10
164.6662
 20
-8.7745
 30
0.0
 11
165.6658
 21
-8.7745
 31
0.0
  0
LINE
  5
119
330
18
100
AcDbEntity
  8
DEFAULT
100
AcDbLine
 10
164.6662
 20
-6.1927
 30
0.0
 11
165.6658
 21
-6.1927
 31
0.0
  0
LINE
  5
11A
330
18
100
AcDbEntity
  8
DEFAULT
100
AcDbLine
 10
164.6662
 20
-2.8969
 30
0.0
 11
165.6658
 21
-2.8969
 31
0.0
  0
LINE
  5
11B
330
18
100
AcDbEntity
  8
DEFAULT
100
AcDbLine
 10
164.6662
 20
-0.8491
 30
0.0
 11
165.6658
 21
-0.8491
 31
0.0
  0
LINE
  5
11C
330
18
100
AcDbEntity
  8
DEFAULT
100
AcDbLine
 10
164.6662
 20
0.9923
 30
0.0
 11
165.6658
 21
0.9923
 31
0.0
  0
LINE
  5
11D
330
18
100
AcDbEntity
  8
DEFAULT
100
AcDbLine
 10
164.6662
 20
2.6291
 30
0.0
 11
165.6658
 21
2.6291
 31
0.0
  0
LINE
  5
11E
330
18
100
AcDbEntity
  8
DEFAULT
100
AcDbLine
 10
164.6662
 20
4.6037
 30
0.0
 11
165.6658
 21
4.6037
 31
0.0
  0
LINE
  5
11F
330
18
100
AcDbEntity
  8
DEFAULT
100
AcDbLine
 10
164.6662
 20
5.7227
 30
0.0
 11
165.6658
 21
5.7227
 31
0.0
  0
LINE
  5
120
330
18
100
AcDbEntity
  8
DEFAULT
100
AcDbLine
 10
164.6662
 20
6.6281
 30
0.0
 11
165.6658
 21
6.6281
 31
0.0
  0
LINE
  5
121
330
18
100
AcDbEntity
  8
DEFAULT
100
AcDbLine
 10
164.6662
 20
7.3079
 30
0.0
 11
165.6658
 21
7.3079
 31
0.0
  0
LINE
  5
122
330
18
100
AcDbEntity
  8
DEFAULT
100
AcDbLine
 10
164.6662
 20
7.8395
 30
0.0
 11
165.6658
 21
7.8395
 31
0.0
  0
LINE
  5
123
330
18
100
AcDbEntity
  8
DEFAULT
100
AcDbLine
 10
163.666
 20
6.6929
 30
0.0
 11
164.6662
 21
6.6929
 31
0.0
  0
LINE
  5
124
330
18
100
AcDbEntity
  8
DEFAULT
100
AcDbLine
 10
164.6662
 20
-53.4277
 30
0.0
 11
164.6662
 21
7.9943
 31
0.0
  0
TEXT
  5
125
330
18
100
AcDbEntity
  8
DEFAULT
100
AcDbText
 10
153.5107
 20
1.2434
 30
0.0
 40
1.2
  1
1 MAY
  7
ENGRAVERS_MT_MEDIUM
100
AcDbText
  0
TEXT
  5
126
330
18
100
AcDbEntity
  8
DEFAULT
100
AcDbText
 10
154.2466
 20
6.5462
 30
0.0
 40
1.2
  1
1 JUN
  7
ENGRAVERS_MT_MEDIUM
100
AcDbText
  0
TEXT
  5
127
330
18
100
AcDbEntity
  8
DEFAULT
100
AcDbText
 10
154.0107
 20
-7.8562
 30
0.0
 40
1.2
  1
1 APR
  7
ENGRAVERS_MT_MEDIUM
100
AcDbText
  0
TEXT
  5
128
330
18
100
AcDbEntity
  8
DEFAULT
100
AcDbText
 10
167.2654
 20
7.2002
 30
0.0
 40
1.2
  1
JUL 1
  7
ENGRAVERS_MT_MEDIUM
100
AcDbText
  0
TEXT
  5
129
330
18
100
AcDbEntity
  8
DEFAULT
100
AcDbText
 10
167.2654
 20
3.4886
 30
0.0
 40
1.2
  1
AUG 1
  7
ENGRAVERS_MT_MEDIUM
100
AcDbText
  0
TEXT
  5
12A
330
18
100
AcDbEntity
  8
DEFAULT
100
AcDbText
 10
167.2654
 20
-4.4092
 30
0.0
 40
1.2
  1
SEP 1
  7
ENGRAVERS_MT_MEDIUM
100
AcDbText
  0
TEXT
  5
12B
330
18
100
AcDbEntity
  8
DEFAULT
100
AcDbText
 10
167.2654
 20
-16.0906
 30
0.0
 40
1.2
  1
OCT 1
  7
ENGRAVERS_MT_MEDIUM
100
AcDbText
  0
TEXT
  5
12C
330
18
100
AcDbEntity
  8
DEFAULT
100
AcDbText
 10
153.4063
 20
-21.7558
 30
0.0
 40
1.2
  1
1 MAR
  7
ENGRAVERS_MT_MEDIUM
100
AcDbText
  0
TEXT
  5
12D
330
18
100
AcDbEntity
  8
DEFAULT
100
AcDbText
 10
167.2654
 20
-32.629
 30
0.0
 40
1.2
  1
NOV 1
  7
ENGRAVERS_MT_MEDIUM
100
AcDbText
  0
TEXT
  5
12E
330
18
100
AcDbEntity
  8
DEFAULT
100
AcDbText
 10
154.4982
 20
-37.9252
 30
0.0
 40
1.2
  1
1 FEB
  7
ENGRAVERS_MT_MEDIUM
100
AcDbText
  0
TEXT
  5
12F
330
18
100
AcDbEntity
  8
DEFAULT
100
AcDbText
 10
167.2654
 20
-49.2022
 30
0.0
 40
1.2
  1
DEC 1
  7
ENGRAVERS_MT_MEDIUM
100
AcDbText
  0
TEXT
  5
130
330
18
100
AcDbEntity
  8
DEFAULT
100
AcDbText
 10
154.3586
 20
-52.663
 30
0.0
 40
1.2
  1
1 JAN
  7
ENGRAVERS_MT_MEDIUM
100
AcDbText
  0
SOLID
  5
131
330
18
100
AcDbEntity
  8
DEFAULT
 62
     3
100
AcDbTrace
 10
148.3004
 20
28.8171
 30
0.0
 11
148.2421
 21
28.8171
 31
0.0
 12
148.2713
 22
29.0021
 32
0.0
 13
148.2713
 23
29.0021
 33
0.0
  0
SOLID
  5
132
330
18
100
AcDbEntity
  8
DEFAULT
 62
     3
100
AcDbTrace
 10
148.2421
 20
11.1906
 30
0.0
 11
148.3004
 21
11.1906
 31
0.0
 12
148.2713
 22
11.0057
 32
0.0
 13
148.2713
 23
11.0057
 33
0.0
  0
LINE
  5
133
330
18
100
AcDbEntity
  8
DEFAULT
 62
     3
100
AcDbLine
 10
148.2713
 20
19.6682
 30
0.0
 11
148.2713
 21
29.0021
 31
0.0
  0
LINE
  5
134
330
18
100
AcDbEntity
  8
DEFAULT
 62
     3
100
AcDbLine
 10
148.2713
 20
11.0057
 30
0.0
 11
148.2713
 21
17.8764
 31
0.0
  0
TEXT
  5
135
330
18
100
AcDbEntity
  8
DEFAULT
 62
     3
100
AcDbText
 10
147.3939
 20
18.1277
 30
0.0
 40
1.2632
  1
18
  7
ARIAL_BOLD
100
AcDbText
  0
LINE
  5
136
330
18
100
AcDbEntity
  8
DEFAULT
 62
     3
100
AcDbLine
 10
148.1463
 20
29.0021
 30
0.0
 11
152.5167
 21
29.0021
 31
0.0
  0
LINE
  5
137
330
18
100
AcDbEntity
  8
DEFAULT
 62
     3
100
AcDbLine
 10
148.1463
 20
11.0057
 30
0.0
 11
152.5167
 21
11.0057
 31
0.0
  0
SPLINE
  5
138
330
18
100
AcDbEntity
  8
DEFAULT
100
AcDbSpline
210
0.0
220
0.0
230
1.0
 70
     8
 71
     3
 72
    26
 73
    22
 74
    20
 42
0.0000001
 43
0.0000001
 44
0.0000000001
 12
0.5717929676213664
 22
0.8203979535437366
 32
0.0
 13
0.6508491009955171
 23
-0.7592071178099736
 33
0.0
 40
0.0
 40
0.0
 40
0.0
 40
0.0
 40
0.1013966961986409
 40
0.3719343275921228
 40
0.5365707148216908
 40
0.7520075965295359
 40
0.9621569243895074
 40
1.157390118288491
 40
1.328977588693524
 40
1.444588185093694
 40
1.574109303062931
 40
1.649620494286461
 40
1.704250339609323
 40
1.876095647953793
 40
1.957005288912074
 40
2.103028848655025
 40
2.24796642142343
 40
2.495350212323332
 40
2.773996457587828
 40
3.014831110410036
 40
3.420011687437123
 40
3.420011687437123
 40
3.420011687437123
 40
3.420011687437123
 10
155.2949
 20
19.7611
 30
0.0
 10
155.3142259726088
 20
19.78882854735249
 30
0.0
 10
155.392341112193
 20
19.88536249725875
 30
0.0
 10
155.5124593991303
 20
20.01758683020073
 30
0.0
 10
155.659782987796
 20
20.17759039303447
 30
0.0
 10
155.81677303548
 20
20.29628273915861
 30
0.0
 10
155.9763257567849
 20
20.4311125924209
 30
0.0
 10
156.1581907193593
 20
20.49947429528576
 30
0.0
 10
156.3086592093761
 20
20.55535355690641
 30
0.0
 10
156.4454688228301
 20
20.58436478077914
 30
0.0
 10
156.552489013726
 20
20.58436228387498
 30
0.0
 10
156.63942310927
 20
20.58702015782129
 30
0.0
 10
156.7383621312535
 20
20.56713225858957
 30
0.0
 10
156.8400232730199
 20
20.5503478372455
 30
0.0
 10
156.9630423901976
 20
20.49859729282091
 30
0.0
 10
157.0706009313684
 20
20.43683781795381
 30
0.0
 10
157.2284031694233
 20
20.35141617536912
 30
0.0
 10
157.4141328742659
 20
20.22525485489916
 30
0.0
 10
157.6021564483257
 20
20.05118200082115
 30
0.0
 10
157.8144716705414
 20
19.82768602134195
 30
0.0
 10
157.9531961952337
 20
19.66283865935911
 30
0.0
 10
158.0411
 20
19.5603
 30
0.0
 11
155.2949
 21
19.7611
 31
0.0
 11
155.3572
 21
19.8411
 31
0.0
 11
155.5366
 21
20.0436
 31
0.0
 11
155.6511
 21
20.1619
 31
0.0
 11
155.8172
 21
20.2991
 31
0.0
 11
155.9865
 21
20.4236
 31
0.0
 11
156.1653
 21
20.502
 31
0.0
 11
156.3278
 21
20.5571
 31
0.0
 11
156.4412
 21
20.5796
 31
0.0
 11
156.5706
 21
20.5852
 31
0.0
 11
156.6461
 21
20.5839
 31
0.0
 11
156.7
 21
20.575
 31
0.0
 11
156.8675
 21
20.5366
 31
0.0
 11
156.9424
 21
20.506
 31
0.0
 11
157.0712
 21
20.4372
 31
0.0
 11
157.1975
 21
20.3661
 31
0.0
 11
157.4018
 21
20.2266
 31
0.0
 11
157.6091
 21
20.0404
 31
0.0
 11
157.7754
 21
19.8662
 31
0.0
 11
158.0411
 21
19.5603
 31
0.0
  0
SPLINE
  5
139
330
18
100
AcDbEntity
  8
DEFAULT
100
AcDbSpline
210
0.0
220
0.0
230
1.0
 70
     8
 71
     3
 72
    11
 73
     7
 74
     5
 42
0.0000001
 43
0.0000001
 44
0.0000000001
 12
0.447559162240897
 22
0.8942543241685926
 32
0.0
 13
0.5891601879845495
 23
0.8080162578154045
 33
0.0
 40
0.0
 40
0.0
 40
0.0
 40
0.0
 40
0.330955132910798
 40
0.6441982493555112
 40
0.9832968928208024
 40
1.30992574947619
 40
1.30992574947619
 40
1.30992574947619
 40
1.30992574947619
 10
154.6102
 20
18.6461
 30
0.0
 10
154.659574000675
 20
18.74475268623709
 30
0.0
 10
154.7575114307344
 20
18.9360363387619
 30
0.0
 10
154.9283755225373
 20
19.2158902120869
 30
0.0
 10
155.1018547238857
 20
19.49235502759782
 30
0.0
 10
155.2307544271373
 20
19.6731261911836
 30
0.0
 10
155.2949
 20
19.7611
 30
0.0
 11
154.6102
 21
18.6461
 31
0.0
 11
154.7639
 21
18.9392
 31
0.0
 11
154.9244
 21
19.2082
 31
0.0
 11
155.1069
 21
19.494
 31
0.0
 11
155.2949
 21
19.7611
 31
0.0
  0
SPLINE
  5
13A
330
18
100
AcDbEntity
  8
DEFAULT
100
AcDbSpline
210
0.0
220
0.0
230
1.0
 70
     8
 71
     3
 72
    10
 73
     6
 74
     4
 42
0.0000001
 43
0.0000001
 44
0.0000000001
 12
0.4338770442743344
 22
0.9009720919383504
 32
0.0
 13
0.4884409670571002
 23
0.8725969411477014
 33
0.0
 40
0.0
 40
0.0
 40
0.0
 40
0.0
 40
0.4225943918227045
 40
0.720245361920234
 40
1.041875708747147
 40
1.041875708747147
 40
1.041875708747147
 40
1.041875708747147
 10
154.1426
 20
17.7153
 30
0.0
 10
154.2037180018836
 20
17.84221525108064
 30
0.0
 10
154.3114387495479
 20
18.05677301258355
 30
0.0
 10
154.4570713997389
 20
18.37221436149076
 30
0.0
 10
154.5578341874536
 20
18.55254878105952
 30
0.0
 10
154.6102
 20
18.6461
 30
0.0
 11
154.1426
 21
17.7153
 31
0.0
 11
154.3277
 21
18.0952
 31
0.0
 11
154.457
 21
18.3633
 31
0.0
 11
154.6102
 21
18.6461
 31
0.0
  0
SPLINE
  5
13B
330
18
100
AcDbEntity
  8
DEFAULT
100
AcDbSpline
210
0.0
220
0.0
230
1.0
 70
     8
 71
     3
 72
   152
 73
   148
 74
   146
 42
0.0000001
 43
0.0000001
 44
0.0000000001
 12
-0.5835250832544472
 22
-0.812095115865679
 32
0.0
 13
1.0
 23
0.0
 33
0.0
 40
0.0
 40
0.0
 40
0.0
 40
0.0
 40
0.1066692083030581
 40
0.2357442639877218
 40
0.338740040600157
 40
0.4779340778287673
 40
0.6342054443678817
 40
0.76473574736301
 40
0.9008398251858274
 40
1.050662119921957
 40
1.152983671903928
 40
1.266726232100197
 40
1.375552010296363
 40
1.517895573550902
 40
1.677709277594084
 40
1.791997903449836
 40
1.901289668921903
 40
1.993791020263378
 40
2.083489459491735
 40
2.155814420604743
 40
2.256806697537197
 40
2.324922628126145
 40
2.392523885510913
 40
2.451317167440061
 40
2.525477331949026
 40
2.567599060308628
 40
2.611987459694074
 40
2.667005365870159
 40
2.72261264956573
 40
2.761133293381727
 40
2.843724878909549
 40
2.911694283791461
 40
2.972146744452711
 40
3.047862132584837
 40
3.122909384366627
 40
3.231932868075424
 40
3.329700858747227
 40
3.457226581642646
 40
3.557221481512584
 40
3.702673363590476
 40
3.853153727758031
 40
3.969348822318863
 40
4.104250453146649
 40
4.309765440434688
 40
4.490229564293149
 40
4.660671020517857
 40
4.858034568317346
 40
4.995223671383149
 40
5.062234491404993
 40
5.285971569244133
 40
5.537567157440751
 40
5.737119882303131
 40
5.959293170526533
 40
6.279465530357928
 40
6.531134280901172
 40
6.823052933953694
 40
7.040464985137617
 40
7.346596803150712
 40
7.540593323738065
 40
7.742301429673349
 40
7.9868623014415
 40
8.20756159912956
 40
8.337913200577329
 40
8.514873422096173
 40
8.657475140178393
 40
8.811565925107276
 40
9.059175698743138
 40
9.350678323088097
 40
9.566047796319566
 40
9.719179961458044
 40
9.915088230808784
 40
10.08840127128758
 40
10.24158671446022
 40
10.3709759334856
 40
10.4827511543532
 40
10.59951630326331
 40
10.7526303783838
 40
10.89734820727849
 40
11.00146372005158
 40
11.13726729143318
 40
11.24912885766573
 40
11.32249983285347
 40
11.43314051253324
 40
11.52685251816754
 40
11.58678456301834
 40
11.64729282691676
 40
11.75184410620113
 40
11.86936525323432
 40
11.9809647604017
 40
12.07755797962543
 40
12.15618882598993
 40
12.25759582772058
 40
12.35978335142089
 40
12.47342744497616
 40
12.64124907647819
 40
12.76752789497122
 40
12.93649090867542
 40
13.23054833503973
 40
13.51247181756645
 40
13.73489342173296
 40
14.05160674636581
 40
14.21427106328873
 40
14.39147207908717
 40
14.60765045450895
 40
14.79567016092294
 40
14.9319208489946
 40
15.08593893234847
 40
15.21515379217503
 40
15.3468320743631
 40
15.50477845767085
 40
15.66165308914453
 40
15.78652101937483
 40
15.89548569254921
 40
16.02980784262135
 40
16.11515349277411
 40
16.21778725914757
 40
16.26808884957969
 40
16.32409331368747
 40
16.38232225837994
 40
16.43685756804258
 40
16.4896880516671
 40
16.55252195971046
 40
16.60774813104252
 40
16.65694823266844
 40
16.71524831843168
 40
16.79635719587428
 40
16.86794504400509
 40
16.94486974744945
 40
17.00839903203536
 40
17.08370374636322
 40
17.15516037656645
 40
17.24229980507043
 40
17.41908860562068
 40
17.57350913534391
 40
17.75329573106228
 40
18.02096093238662
 40
18.25080722885449
 40
18.41962428960371
 40
18.67887771773917
 40
18.92235784013114
 40
19.36435563424328
 40
19.73505295012242
 40
20.17138421189493
 40
20.74905155561449
 40
21.40088154111684
 40
21.82717384693527
 40
22.26536597374725
 40
22.26536597374725
 40
22.26536597374725
 40
22.26536597374725
 10
173.3989
 20
13.6539
 30
0.0
 10
173.3781519471148
 20
13.62502481897461
 30
0.0
 10
173.3341603593575
 20
13.55981375623482
 30
0.0
 10
173.2790800001106
 20
13.46111794297112
 30
0.0
 10
173.226781612682
 20
13.3487078568466
 30
0.0
 10
173.1508141876598
 20
13.23927264047966
 30
0.0
 10
173.0886315107936
 20
13.1108231777362
 30
0.0
 10
173.0002085106814
 20
13.00038318055706
 30
0.0
 10
172.9204729668614
 20
12.88681273967746
 30
0.0
 10
172.844942893434
 20
12.7818112188713
 30
0.0
 10
172.7770425831088
 20
12.68012561511862
 30
0.0
 10
172.7009131710383
 20
12.60257472923616
 30
0.0
 10
172.6288334738091
 20
12.50416374832041
 30
0.0
 10
172.5280061820669
 20
12.41073464622654
 30
0.0
 10
172.4314766405639
 20
12.3110572156716
 30
0.0
 10
172.3351023463155
 20
12.22685898243389
 30
0.0
 10
172.2526928785414
 20
12.1614383746509
 30
0.0
 10
172.1766195257565
 20
12.10030361654156
 30
0.0
 10
172.0999610847649
 20
12.06309586588753
 30
0.0
 10
172.0248316092303
 20
12.01799381528529
 30
0.0
 10
171.9525047204048
 20
11.98211479151869
 30
0.0
 10
171.8774490531498
 20
11.95702775634052
 30
0.0
 10
171.8135784250544
 20
11.94509986994792
 30
0.0
 10
171.7472450136079
 20
11.93690748435959
 30
0.0
 10
171.6891530544739
 20
11.93086565133466
 30
0.0
 10
171.6357649361745
 20
11.92749504009295
 30
0.0
 10
171.5886124778082
 20
11.92216186235984
 30
0.0
 10
171.5373277858284
 20
11.9306917031081
 30
0.0
 10
171.486770086382
 20
11.9244036108264
 30
0.0
 10
171.4307492376976
 20
11.9450164809817
 30
0.0
 10
171.3674155723432
 20
11.9520091484451
 30
0.0
 10
171.30410475856
 20
11.98426509403962
 30
0.0
 10
171.2397392144965
 20
12.00631029769615
 30
0.0
 10
171.1750961314371
 20
12.03414069802162
 30
0.0
 10
171.0956447985263
 20
12.06954104970177
 30
0.0
 10
171.0220142752436
 20
12.12902902052398
 30
0.0
 10
170.9284282815962
 20
12.18909672446646
 30
0.0
 10
170.8338550126629
 20
12.24409156066808
 30
0.0
 10
170.7486341222381
 20
12.33560662513346
 30
0.0
 10
170.6540801720131
 20
12.42737952896258
 30
0.0
 10
170.5580724760927
 20
12.52570941428455
 30
0.0
 10
170.4660098608601
 20
12.6229901962875
 30
0.0
 10
170.3715345941488
 20
12.74244658814054
 30
0.0
 10
170.2594273113576
 20
12.87508153566561
 30
0.0
 10
170.1501675979467
 20
13.02510342911636
 30
0.0
 10
170.0460557836435
 20
13.17525663690691
 30
0.0
 10
169.9510050758222
 20
13.31430279146478
 30
0.0
 10
169.8848069269185
 20
13.43083212757225
 30
0.0
 10
169.8020130729112
 20
13.54713518760128
 30
0.0
 10
169.716917214652
 20
13.70714712321317
 30
0.0
 10
169.5880294590247
 20
13.89198722613649
 30
0.0
 10
169.4830004439331
 20
14.09059918102163
 30
0.0
 10
169.3576185090871
 20
14.30372960904957
 30
0.0
 10
169.2235990185484
 20
14.53203489363036
 30
0.0
 10
169.0896775464027
 20
14.78698610900211
 30
0.0
 10
168.9598141909764
 20
15.00503723278709
 30
0.0
 10
168.8367419851388
 20
15.24753609899591
 30
0.0
 10
168.7146845260735
 20
15.45334143107826
 30
0.0
 10
168.6020037709901
 20
15.65837246508402
 30
0.0
 10
168.4942140106203
 20
15.84259145117473
 30
0.0
 10
168.3824529993945
 20
16.03477338377427
 30
0.0
 10
168.2870290778418
 20
16.20894776798806
 30
0.0
 10
168.1969011267578
 20
16.36005022536598
 30
0.0
 10
168.1261506281574
 20
16.49277339665174
 30
0.0
 10
168.0287192720235
 20
16.61747187297386
 30
0.0
 10
167.9160992183967
 20
16.75960168239632
 30
0.0
 10
167.7803055322593
 20
16.94669101188076
 30
0.0
 10
167.6351360278475
 20
17.15201247369419
 30
0.0
 10
167.5062265027085
 20
17.3303199821551
 30
0.0
 10
167.3884973632513
 20
17.4772679723583
 30
0.0
 10
167.2677229234978
 20
17.60291821035747
 30
0.0
 10
167.1449327837869
 20
17.72630259148191
 30
0.0
 10
167.0367774926445
 20
17.83320109303761
 30
0.0
 10
166.9364210395704
 20
17.91816247356856
 30
0.0
 10
166.8446187877158
 20
17.99446591516015
 30
0.0
 10
166.7397598560765
 20
18.06673611484548
 30
0.0
 10
166.6213636844598
 20
18.13824342605236
 30
0.0
 10
166.5006259900098
 20
18.19688876069858
 30
0.0
 10
166.392263891536
 20
18.2652891043574
 30
0.0
 10
166.2823263299621
 20
18.31107597408325
 30
0.0
 10
166.1753403426219
 20
18.32142319188314
 30
0.0
 10
166.0779957887721
 20
18.3381258636428
 30
0.0
 10
165.985124498573
 20
18.33650832086815
 30
0.0
 10
165.8969081575423
 20
18.33845564834565
 30
0.0
 10
165.8260526661449
 20
18.32877646411977
 30
0.0
 10
165.7512840433314
 20
18.32311504027105
 30
0.0
 10
165.6583928451281
 20
18.30424226136235
 30
0.0
 10
165.5551035011713
 20
18.26224109047065
 30
0.0
 10
165.4555180315191
 20
18.21910351242926
 30
0.0
 10
165.3691179732538
 20
18.17816269788037
 30
0.0
 10
165.28523151678
 20
18.13972216192516
 30
0.0
 10
165.2042653496624
 20
18.09157007444444
 30
0.0
 10
165.1039005822948
 20
18.05501009529704
 30
0.0
 10
165.0045284444931
 20
17.97249244342949
 30
0.0
 10
164.89392871698
 20
17.89416672839953
 30
0.0
 10
164.7714169879056
 20
17.79996047857992
 30
0.0
 10
164.62521941828
 20
17.66867960258892
 30
0.0
 10
164.4409673993269
 20
17.50215171756904
 30
0.0
 10
164.2537773109618
 20
17.31282833755246
 30
0.0
 10
164.0647830548442
 20
17.11490869797748
 30
0.0
 10
163.9002768760545
 20
16.94850470095597
 30
0.0
 10
163.7408266925122
 20
16.79853995921639
 30
0.0
 10
163.6118127857968
 20
16.66539409948138
 30
0.0
 10
163.4706784157588
 20
16.53253325726541
 30
0.0
 10
163.3462957089766
 20
16.40202596760133
 30
0.0
 10
163.2270882172651
 20
16.29607216570109
 30
0.0
 10
163.1243964471596
 20
16.20112424297793
 30
0.0
 10
163.0172533118882
 20
16.11360110455753
 30
0.0
 10
162.9098193076045
 20
16.02445905349142
 30
0.0
 10
162.7918807689215
 20
15.93353418062597
 30
0.0
 10
162.6702053330085
 20
15.85167593119709
 30
0.0
 10
162.5596330110404
 20
15.78288576584694
 30
0.0
 10
162.453608467015
 20
15.72090561587459
 30
0.0
 10
162.3535038645281
 20
15.67585061273273
 30
0.0
 10
162.2534239564791
 20
15.63701591818564
 30
0.0
 10
162.1800967222827
 20
15.60585141214879
 30
0.0
 10
162.1124851958788
 20
15.58881734659677
 30
0.0
 10
162.0604137450571
 20
15.57137826113276
 30
0.0
 10
162.0050493747381
 20
15.56078018249084
 30
0.0
 10
161.9505186963274
 20
15.55231869877042
 30
0.0
 10
161.8941195672067
 20
15.54588553978566
 30
0.0
 10
161.8372478539812
 20
15.542516472351
 30
0.0
 10
161.7815041480626
 20
15.54038690870569
 30
0.0
 10
161.7272948141731
 20
15.54160126971141
 30
0.0
 10
161.6642427624581
 20
15.53854132572666
 30
0.0
 10
161.5948510336393
 20
15.55232822471632
 30
0.0
 10
161.5186956277087
 20
15.56013511006513
 30
0.0
 10
161.4498107586908
 20
15.57684620555217
 30
0.0
 10
161.3809522985548
 20
15.59742531237324
 30
0.0
 10
161.3130405085235
 20
15.61529703215293
 30
0.0
 10
161.2411493623781
 20
15.64592571687413
 30
0.0
 10
161.1404665793863
 20
15.69430103116924
 30
0.0
 10
161.0151777030717
 20
15.75653083611318
 30
0.0
 10
160.8768783927573
 20
15.85659534466897
 30
0.0
 10
160.7169898275953
 20
15.97759267407235
 30
0.0
 10
160.5451748383093
 20
16.12476039459713
 30
0.0
 10
160.3924250597553
 20
16.28630421214952
 30
0.0
 10
160.2468928051985
 20
16.45027671969417
 30
0.0
 10
160.0963527930077
 20
16.61626247660314
 30
0.0
 10
159.9084805580656
 20
16.8691236366714
 30
0.0
 10
159.6818568134015
 20
17.13972801703564
 30
0.0
 10
159.4670699096008
 20
17.49665447848227
 30
0.0
 10
159.1959643945644
 20
17.8736572425258
 30
0.0
 10
158.9076466411652
 20
18.33184671457504
 30
0.0
 10
158.5504052244389
 20
18.82297523155145
 30
0.0
 10
158.4035354590157
 20
19.1597198863408
 30
0.0
 10
157.8950359577293
 20
19.5603
 30
0.0
 10
158.0411
 20
19.5603
 30
0.0
 11
173.3989
 21
13.6539
 31
0.0
 11
173.3395
 21
13.5653
 31
0.0
 11
173.2764
 21
13.4527
 31
0.0
 11
173.2297
 21
13.3609
 31
0.0
 11
173.157
 21
13.2422
 31
0.0
 11
173.0795
 21
13.1065
 31
0.0
 11
173.0025
 21
13.0011
 31
0.0
 11
172.9229
 21
12.8907
 31
0.0
 11
172.8365
 21
12.7683
 31
0.0
 11
172.7768
 21
12.6852
 31
0.0
 11
172.7019
 21
12.5996
 31
0.0
 11
172.6332
 21
12.5152
 31
0.0
 11
172.5332
 21
12.4139
 31
0.0
 11
172.4191
 21
12.302
 31
0.0
 11
172.3333
 21
12.2265
 31
0.0
 11
172.2483
 21
12.1578
 31
0.0
 11
172.174
 21
12.1027
 31
0.0
 11
172.0955
 21
12.0593
 31
0.0
 11
172.0326
 21
12.0236
 31
0.0
 11
171.9416
 21
11.9798
 31
0.0
 11
171.8769
 21
11.9585
 31
0.0
 11
171.8106
 21
11.9453
 31
0.0
 11
171.7523
 21
11.9377
 31
0.0
 11
171.6785
 21
11.9304
 31
0.0
 11
171.6365
 21
11.9272
 31
0.0
 11
171.5922
 21
11.9244
 31
0.0
 11
171.5373
 21
11.928
 31
0.0
 11
171.4817
 21
11.9289
 31
0.0
 11
171.4445
 21
11.9389
 31
0.0
 11
171.3641
 21
11.9578
 31
0.0
 11
171.3013
 21
11.9838
 31
0.0
 11
171.2448
 21
12.0053
 31
0.0
 11
171.1749
 21
12.0344
 31
0.0
 11
171.1074
 21
12.0672
 31
0.0
 11
171.018
 21
12.1296
 31
0.0
 11
170.9363
 21
12.1833
 31
0.0
 11
170.8303
 21
12.2542
 31
0.0
 11
170.7586
 21
12.3239
 31
0.0
 11
170.6557
 21
12.4267
 31
0.0
 11
170.5504
 21
12.5342
 31
0.0
 11
170.4715
 21
12.6195
 31
0.0
 11
170.3857
 21
12.7236
 31
0.0
 11
170.2561
 21
12.8831
 31
0.0
 11
170.1488
 21
13.0282
 31
0.0
 11
170.0513
 21
13.168
 31
0.0
 11
169.9424
 21
13.3326
 31
0.0
 11
169.8706
 21
13.4495
 31
0.0
 11
169.8329
 21
13.5049
 31
0.0
 11
169.7177
 21
13.6967
 31
0.0
 11
169.583
 21
13.9092
 31
0.0
 11
169.4853
 21
14.0832
 31
0.0
 11
169.3742
 21
14.2756
 31
0.0
 11
169.2145
 21
14.5531
 31
0.0
 11
169.0941
 21
14.7741
 31
0.0
 11
168.9504
 21
15.0282
 31
0.0
 11
168.8484
 21
15.2202
 31
0.0
 11
168.6974
 21
15.4865
 31
0.0
 11
168.6025
 21
15.6557
 31
0.0
 11
168.5015
 21
15.8303
 31
0.0
 11
168.3794
 21
16.0422
 31
0.0
 11
168.2711
 21
16.2345
 31
0.0
 11
168.2056
 21
16.3472
 31
0.0
 11
168.116
 21
16.4998
 31
0.0
 11
168.031
 21
16.6143
 31
0.0
 11
167.9361
 21
16.7357
 31
0.0
 11
167.7893
 21
16.9351
 31
0.0
 11
167.62
 21
17.1724
 31
0.0
 11
167.4924
 21
17.3459
 31
0.0
 11
167.3959
 21
17.4648
 31
0.0
 11
167.2621
 21
17.6079
 31
0.0
 11
167.14
 21
17.7309
 31
0.0
 11
167.0297
 21
17.8372
 31
0.0
 11
166.9318
 21
17.9218
 31
0.0
 11
166.8449
 21
17.9921
 31
0.0
 11
166.7492
 21
18.059
 31
0.0
 11
166.6178
 21
18.1376
 31
0.0
 11
166.49
 21
18.2055
 31
0.0
 11
166.3998
 21
18.2575
 31
0.0
 11
166.2733
 21
18.3069
 31
0.0
 11
166.1628
 21
18.3243
 31
0.0
 11
166.0901
 21
18.3342
 31
0.0
 11
165.9795
 21
18.3372
 31
0.0
 11
165.8858
 21
18.3357
 31
0.0
 11
165.8262
 21
18.3294
 31
0.0
 11
165.766
 21
18.3233
 31
0.0
 11
165.6636
 21
18.3022
 31
0.0
 11
165.5535
 21
18.2611
 31
0.0
 11
165.4512
 21
18.2165
 31
0.0
 11
165.3636
 21
18.1758
 31
0.0
 11
165.2927
 21
18.1418
 31
0.0
 11
165.203
 21
18.0945
 31
0.0
 11
165.1103
 21
18.0515
 31
0.0
 11
165.018
 21
17.9852
 31
0.0
 11
164.8833
 21
17.8851
 31
0.0
 11
164.7836
 21
17.8076
 31
0.0
 11
164.6563
 21
17.6965
 31
0.0
 11
164.4399
 21
17.4974
 31
0.0
 11
164.2405
 21
17.2981
 31
0.0
 11
164.0861
 21
17.138
 31
0.0
 11
163.8624
 21
16.9138
 31
0.0
 11
163.7452
 21
16.801
 31
0.0
 11
163.62
 21
16.6756
 31
0.0
 11
163.4653
 21
16.5246
 31
0.0
 11
163.3323
 21
16.3917
 31
0.0
 11
163.2318
 21
16.2997
 31
0.0
 11
163.1172
 21
16.1968
 31
0.0
 11
163.018
 21
16.114
 31
0.0
 11
162.9161
 21
16.0306
 31
0.0
 11
162.7906
 21
15.9347
 31
0.0
 11
162.6608
 21
15.8466
 31
0.0
 11
162.5548
 21
15.7806
 31
0.0
 11
162.4601
 21
15.7267
 31
0.0
 11
162.3381
 21
15.6705
 31
0.0
 11
162.2589
 21
15.6387
 31
0.0
 11
162.1629
 21
15.6024
 31
0.0
 11
162.1145
 21
15.5887
 31
0.0
 11
162.0608
 21
15.5728
 31
0.0
 11
162.0038
 21
15.5609
 31
0.0
 11
161.9499
 21
15.5526
 31
0.0
 11
161.8974
 21
15.5467
 31
0.0
 11
161.8347
 21
15.5426
 31
0.0
 11
161.7795
 21
15.5409
 31
0.0
 11
161.7303
 21
15.541
 31
0.0
 11
161.672
 21
15.5409
 31
0.0
 11
161.5916
 21
15.5516
 31
0.0
 11
161.5207
 21
15.5615
 31
0.0
 11
161.4457
 21
15.5786
 31
0.0
 11
161.3846
 21
15.596
 31
0.0
 11
161.3124
 21
15.6174
 31
0.0
 11
161.2462
 21
15.6443
 31
0.0
 11
161.1674
 21
15.6815
 31
0.0
 11
161.0112
 21
15.7643
 31
0.0
 11
160.8841
 21
15.852
 31
0.0
 11
160.7412
 21
15.9611
 31
0.0
 11
160.5391
 21
16.1366
 31
0.0
 11
160.3795
 21
16.302
 31
0.0
 11
160.2667
 21
16.4276
 31
0.0
 11
160.0962
 21
16.6229
 31
0.0
 11
159.9466
 21
16.815
 31
0.0
 11
159.6768
 21
17.1651
 31
0.0
 11
159.4743
 21
17.4756
 31
0.0
 11
159.2279
 21
17.8357
 31
0.0
 11
158.9089
 21
18.3173
 31
0.0
 11
158.5486
 21
18.8605
 31
0.0
 11
158.3014
 21
19.2078
 31
0.0
 11
158.0411
 21
19.5603
 31
0.0
  0
SPLINE
  5
13C
330
18
100
AcDbEntity
  8
DEFAULT
100
AcDbSpline
210
0.0
220
0.0
230
1.0
 70
     8
 71
     3
 72
    16
 73
    12
 74
    10
 42
0.0000001
 43
0.0000001
 44
0.0000000001
 12
0.4733521519382549
 22
0.8808732827458348
 32
0.0
 13
1.0
 23
0.0
 33
0.0
 40
0.0
 40
0.0
 40
0.0
 40
0.0
 40
0.1836942024125977
 40
0.4802777151033728
 40
0.8022451979335442
 40
1.02952286951613
 40
1.221288142701866
 40
1.545416142109507
 40
2.620830485513944
 40
3.09599279462526
 40
3.571931162483962
 40
3.571931162483962
 40
3.571931162483962
 40
3.571931162483962
 10
173.3989
 20
13.6539
 30
0.0
 10
173.4278840153369
 20
13.70783710503352
 30
0.0
 10
173.5026860650553
 20
13.84937984275987
 30
0.0
 10
173.6321573136461
 20
14.08340937076784
 30
0.0
 10
173.7552159467778
 20
14.33726427598196
 30
0.0
 10
173.8540249553329
 20
14.56365295525958
 30
0.0
 10
173.9678305728544
 20
14.78405507546156
 30
0.0
 10
174.1945230295349
 20
15.26044762268099
 30
0.0
 10
174.4092109935253
 20
15.88327392508197
 30
0.0
 10
174.7634114220558
 20
16.38728357258428
 30
0.0
 10
174.7514538773804
 20
16.8891
 30
0.0
 10
174.9101
 20
16.8891
 30
0.0
 11
173.3989
 21
13.6539
 31
0.0
 11
173.4855
 21
13.8159
 31
0.0
 11
173.6258
 21
14.0772
 31
0.0
 11
173.7667
 21
14.3667
 31
0.0
 11
173.8612
 21
14.5734
 31
0.0
 11
173.9468
 21
14.745
 31
0.0
 11
174.0854
 21
15.038
 31
0.0
 11
174.5229
 21
16.0204
 31
0.0
 11
174.7188
 21
16.4533
 31
0.0
 11
174.9101
 21
16.8891
 31
0.0
  0
LINE
  5
13D
330
18
100
AcDbEntity
  8
DEFAULT
100
AcDbLine
 10
174.9101
 20
16.8891
 30
0.0
 11
175.2454
 21
17.6274
 31
0.0
  0
LINE
  5
13E
330
18
100
AcDbEntity
  8
DEFAULT
100
AcDbLine
 10
154.1065
 20
20.4698
 30
0.0
 11
175.2364
 21
20.4812
 31
0.0
  0
LINE
  5
13F
330
18
100
AcDbEntity
  8
DEFAULT
100
AcDbLine
 10
154.1065
 20
20.1897
 30
0.0
 11
175.2378
 21
20.2031
 31
0.0
  0
LINE
  5
140
330
18
100
AcDbEntity
  8
DEFAULT
100
AcDbLine
 10
154.109
 20
18.7892
 30
0.0
 11
175.2391
 21
18.8045
 31
0.0
  0
LINE
  5
141
330
18
100
AcDbEntity
  8
DEFAULT
100
AcDbLine
 10
154.109
 20
18.5033
 30
0.0
 11
175.2397
 21
18.5219
 31
0.0
  0
LINE
  5
142
330
18
100
AcDbEntity
  8
DEFAULT
100
AcDbLine
 10
154.1091
 20
18.2346
 30
0.0
 11
175.241
 21
18.2442
 31
0.0
  0
LINE
  5
143
330
18
100
AcDbEntity
  8
DEFAULT
100
AcDbLine
 10
154.1092
 20
17.6642
 30
0.0
 11
175.241
 21
17.6863
 31
0.0
  0
LINE
  5
144
330
18
100
AcDbEntity
  8
DEFAULT
100
AcDbLine
 10
154.1098
 20
17.3942
 30
0.0
 11
175.2416
 21
17.4068
 31
0.0
  0
LINE
  5
145
330
18
100
AcDbEntity
  8
DEFAULT
100
AcDbLine
 10
154.1099
 20
17.1132
 30
0.0
 11
175.2426
 21
17.1292
 31
0.0
  0
LINE
  5
146
330
18
100
AcDbEntity
  8
DEFAULT
100
AcDbLine
 10
154.1099
 20
16.8319
 30
0.0
 11
175.2428
 21
16.8481
 31
0.0
  0
LINE
  5
147
330
18
100
AcDbEntity
  8
DEFAULT
100
AcDbLine
 10
154.1109
 20
16.2802
 30
0.0
 11
175.2432
 21
16.2655
 31
0.0
  0
LINE
  5
148
330
18
100
AcDbEntity
  8
DEFAULT
100
AcDbLine
 10
154.1109
 20
15.9931
 30
0.0
 11
175.2446
 21
15.9812
 31
0.0
  0
LINE
  5
149
330
18
100
AcDbEntity
  8
DEFAULT
100
AcDbLine
 10
154.1109
 20
15.7082
 30
0.0
 11
175.2454
 21
15.6977
 31
0.0
  0
LINE
  5
14A
330
18
100
AcDbEntity
  8
DEFAULT
100
AcDbLine
 10
154.1122
 20
15.4247
 30
0.0
 11
175.2454
 21
15.4147
 31
0.0
  0
LINE
  5
14B
330
18
100
AcDbEntity
  8
DEFAULT
100
AcDbLine
 10
154.1122
 20
14.8678
 30
0.0
 11
175.2458
 21
14.8946
 31
0.0
  0
LINE
  5
14C
330
18
100
AcDbEntity
  8
DEFAULT
100
AcDbLine
 10
154.1124
 20
14.5906
 30
0.0
 11
175.246
 21
14.6128
 31
0.0
  0
LINE
  5
14D
330
18
100
AcDbEntity
  8
DEFAULT
100
AcDbLine
 10
154.1135
 20
14.3107
 30
0.0
 11
175.2479
 21
14.3331
 31
0.0
  0
LINE
  5
14E
330
18
100
AcDbEntity
  8
DEFAULT
100
AcDbLine
 10
154.1137
 20
13.1806
 30
0.0
 11
175.2487
 21
13.2123
 31
0.0
  0
LINE
  5
14F
330
18
100
AcDbEntity
  8
DEFAULT
100
AcDbLine
 10
154.1137
 20
12.9032
 30
0.0
 11
175.2492
 21
12.935
 31
0.0
  0
LINE
  5
150
330
18
100
AcDbEntity
  8
DEFAULT
100
AcDbLine
 10
154.1141
 20
12.6243
 30
0.0
 11
175.2494
 21
12.6531
 31
0.0
  0
LINE
  5
151
330
18
100
AcDbEntity
  8
DEFAULT
100
AcDbLine
 10
154.1154
 20
12.0612
 30
0.0
 11
175.2506
 21
12.0921
 31
0.0
  0
LINE
  5
152
330
18
100
AcDbEntity
  8
DEFAULT
100
AcDbLine
 10
154.1154
 20
11.7782
 30
0.0
 11
175.2516
 21
11.8042
 31
0.0
  0
LINE
  5
153
330
18
100
AcDbEntity
  8
DEFAULT
100
AcDbLine
 10
154.1065
 20
20.8854
 30
0.0
 11
154.1154
 21
11.7782
 31
0.0
  0
LINE
  5
154
330
18
100
AcDbEntity
  8
DEFAULT
100
AcDbLine
 10
155.8965
 20
20.8869
 30
0.0
 11
155.9087
 21
11.7808
 31
0.0
  0
LINE
  5
155
330
18
100
AcDbEntity
  8
DEFAULT
100
AcDbLine
 10
159.3169
 20
20.8884
 30
0.0
 11
159.3293
 21
11.7845
 31
0.0
  0
LINE
  5
156
330
18
100
AcDbEntity
  8
DEFAULT
100
AcDbLine
 10
168.1629
 20
20.8941
 30
0.0
 11
168.1763
 21
11.7956
 31
0.0
  0
LINE
  5
157
330
18
100
AcDbEntity
  8
DEFAULT
100
AcDbLine
 10
169.8954
 20
20.8959
 30
0.0
 11
169.9152
 21
11.7976
 31
0.0
  0
LINE
  5
158
330
18
100
AcDbEntity
  8
DEFAULT
100
AcDbLine
 10
171.694
 20
20.8963
 30
0.0
 11
171.7164
 21
11.8005
 31
0.0
  0
LINE
  5
159
330
18
100
AcDbEntity
  8
DEFAULT
100
AcDbLine
 10
173.4298
 20
20.8982
 30
0.0
 11
173.4575
 21
11.8018
 31
0.0
  0
LINE
  5
15A
330
18
100
AcDbEntity
  8
DEFAULT
100
AcDbLine
 10
153.9782
 20
12.3427
 30
0.0
 11
175.3876
 21
12.3734
 31
0.0
  0
LINE
  5
15B
330
18
100
AcDbEntity
  8
DEFAULT
100
AcDbLine
 10
153.9729
 20
17.9416
 30
0.0
 11
175.3767
 21
17.9632
 31
0.0
  0
LINE
  5
15C
330
18
100
AcDbEntity
  8
DEFAULT
100
AcDbLine
 10
153.9756
 20
15.1475
 30
0.0
 11
175.3822
 21
15.1717
 31
0.0
  0
LINE
  5
15D
330
18
100
AcDbEntity
  8
DEFAULT
100
AcDbLine
 10
153.9697
 20
20.7495
 30
0.0
 11
175.3726
 21
20.7627
 31
0.0
  0
TEXT
  5
15E
330
18
100
AcDbEntity
  8
DEFAULT
100
AcDbText
 10
152.8994
 20
20.5378
 30
0.0
 40
0.415
  1
+15
  7
ARIAL
100
AcDbText
  0
TEXT
  5
15F
330
18
100
AcDbEntity
  8
DEFAULT
100
AcDbText
 10
152.9051
 20
19.136
 30
0.0
 40
0.415
  1
+10
  7
ARIAL
100
AcDbText
  0
TEXT
  5
160
330
18
100
AcDbEntity
  8
DEFAULT
100
AcDbText
 10
153.2261
 20
17.7299
 30
0.0
 40
0.415
  1
+5
  7
ARIAL
100
AcDbText
  0
TEXT
  5
161
330
18
100
AcDbEntity
  8
DEFAULT
100
AcDbText
 10
153.5645
 20
16.3501
 30
0.0
 40
0.415
  1
0
  7
ARIAL
100
AcDbText
  0
TEXT
  5
162
330
18
100
AcDbEntity
  8
DEFAULT
100
AcDbText
 10
153.361
 20
14.9358
 30
0.0
 40
0.415
  1
-5
  7
ARIAL
100
AcDbText
  0
TEXT
  5
163
330
18
100
AcDbEntity
  8
DEFAULT
100
AcDbText
 10
153.0427
 20
13.5337
 30
0.0
 40
0.415
  1
-10
  7
ARIAL
100
AcDbText
  0
TEXT
  5
164
330
18
100
AcDbEntity
  8
DEFAULT
100
AcDbText
 10
153.0395
 20
12.131
 30
0.0
 40
0.415
  1
-15
  7
ARIAL
100
AcDbText
  0
TEXT
  5
165
330
18
100
AcDbEntity
  8
DEFAULT
100
AcDbText
 10
175.5097
 20
20.551
 30
0.0
 40
0.415
  1
+15
  7
ARIAL
100
AcDbText
  0
TEXT
  5
166
330
18
100
AcDbEntity
  8
DEFAULT
100
AcDbText
 10
175.5122
 20
19.1487
 30
0.0
 40
0.415
  1
+10
  7
ARIAL
100
AcDbText
  0
TEXT
  5
167
330
18
100
AcDbEntity
  8
DEFAULT
100
AcDbText
 10
175.5151
 20
17.7515
 30
0.0
 40
0.415
  1
+5
  7
ARIAL
100
AcDbText
  0
TEXT
  5
168
330
18
100
AcDbEntity
  8
DEFAULT
100
AcDbText
 10
175.5167
 20
16.3652
 30
0.0
 40
0.415
  1
0
  7
ARIAL
100
AcDbText
  0
TEXT
  5
169
330
18
100
AcDbEntity
  8
DEFAULT
100
AcDbText
 10
175.5194
 20
14.96
 30
0.0
 40
0.415
  1
-5
  7
ARIAL
100
AcDbText
  0
TEXT
  5
16A
330
18
100
AcDbEntity
  8
DEFAULT
100
AcDbText
 10
175.5215
 20
13.5646
 30
0.0
 40
0.415
  1
-10
  7
ARIAL
100
AcDbText
  0
TEXT
  5
16B
330
18
100
AcDbEntity
  8
DEFAULT
100
AcDbText
 10
175.5238
 20
12.1617
 30
0.0
 40
0.415
  1
-15
  7
ARIAL
100
AcDbText
  0
TEXT
  5
16C
330
18
100
AcDbEntity
  8
DEFAULT
100
AcDbText
 10
154.0296
 20
21.0227
 30
0.0
 40
0.415
  1
1
  7
ARIAL
100
AcDbText
  0
TEXT
  5
16D
330
18
100
AcDbEntity
  8
DEFAULT
100
AcDbText
 10
155.8196
 20
21.0235
 30
0.0
 40
0.415
  1
1
  7
ARIAL
100
AcDbText
  0
TEXT
  5
16E
330
18
100
AcDbEntity
  8
DEFAULT
100
AcDbText
 10
157.4446
 20
21.0248
 30
0.0
 40
0.415
  1
1
  7
ARIAL
100
AcDbText
  0
TEXT
  5
16F
330
18
100
AcDbEntity
  8
DEFAULT
100
AcDbText
 10
159.24
 20
21.0255
 30
0.0
 40
0.415
  1
1
  7
ARIAL
100
AcDbText
  0
TEXT
  5
170
330
18
100
AcDbEntity
  8
DEFAULT
100
AcDbText
 10
160.9761
 20
21.027
 30
0.0
 40
0.415
  1
1
  7
ARIAL
100
AcDbText
  0
TEXT
  5
171
330
18
100
AcDbEntity
  8
DEFAULT
100
AcDbText
 10
162.7715
 20
21.0279
 30
0.0
 40
0.415
  1
1
  7
ARIAL
100
AcDbText
  0
TEXT
  5
172
330
18
100
AcDbEntity
  8
DEFAULT
100
AcDbText
 10
164.5068
 20
21.0292
 30
0.0
 40
0.415
  1
1
  7
ARIAL
100
AcDbText
  0
TEXT
  5
173
330
18
100
AcDbEntity
  8
DEFAULT
100
AcDbText
 10
166.2887
 20
21.0298
 30
0.0
 40
0.415
  1
1
  7
ARIAL
100
AcDbText
  0
TEXT
  5
174
330
18
100
AcDbEntity
  8
DEFAULT
100
AcDbText
 10
168.086
 20
21.0315
 30
0.0
 40
0.415
  1
1
  7
ARIAL
100
AcDbText
  0
TEXT
  5
175
330
18
100
AcDbEntity
  8
DEFAULT
100
AcDbText
 10
169.8185
 20
21.032
 30
0.0
 40
0.415
  1
1
  7
ARIAL
100
AcDbText
  0
TEXT
  5
176
330
18
100
AcDbEntity
  8
DEFAULT
100
AcDbText
 10
171.6171
 20
21.0335
 30
0.0
 40
0.415
  1
1
  7
ARIAL
100
AcDbText
  0
TEXT
  5
177
330
18
100
AcDbEntity
  8
DEFAULT
100
AcDbText
 10
173.3529
 20
21.0343
 30
0.0
 40
0.415
  1
1
  7
ARIAL
100
AcDbText
  0
TEXT
  5
178
330
18
100
AcDbEntity
  8
DEFAULT
100
AcDbText
 10
174.4426
 20
21.0351
 30
0.0
 40
0.2074
  1
20
  7
ARIAL
100
AcDbText
  0
TEXT
  5
179
330
18
100
AcDbEntity
  8
DEFAULT
100
AcDbText
 10
173.8702
 20
21.0351
 30
0.0
 40
0.2074
  1
10
  7
ARIAL
100
AcDbText
  0
TEXT
  5
17A
330
18
100
AcDbEntity
  8
DEFAULT
100
AcDbText
 10
172.7108
 20
21.034
 30
0.0
 40
0.2074
  1
20
  7
ARIAL
100
AcDbText
  0
TEXT
  5
17B
330
18
100
AcDbEntity
  8
DEFAULT
100
AcDbText
 10
172.1331
 20
21.034
 30
0.0
 40
0.2074
  1
10
  7
ARIAL
100
AcDbText
  0
TEXT
  5
17C
330
18
100
AcDbEntity
  8
DEFAULT
100
AcDbText
 10
170.9111
 20
21.0325
 30
0.0
 40
0.2074
  1
20
  7
ARIAL
100
AcDbText
  0
TEXT
  5
17D
330
18
100
AcDbEntity
  8
DEFAULT
100
AcDbText
 10
170.3409
 20
21.0325
 30
0.0
 40
0.2074
  1
10
  7
ARIAL
100
AcDbText
  0
TEXT
  5
17E
330
18
100
AcDbEntity
  8
DEFAULT
100
AcDbText
 10
169.166
 20
21.0319
 30
0.0
 40
0.2074
  1
20
  7
ARIAL
100
AcDbText
  0
TEXT
  5
17F
330
18
100
AcDbEntity
  8
DEFAULT
100
AcDbText
 10
168.5958
 20
21.0319
 30
0.0
 40
0.2074
  1
10
  7
ARIAL
100
AcDbText
  0
TEXT
  5
180
330
18
100
AcDbEntity
  8
DEFAULT
100
AcDbText
 10
167.3705
 20
21.0313
 30
0.0
 40
0.2074
  1
20
  7
ARIAL
100
AcDbText
  0
TEXT
  5
181
330
18
100
AcDbEntity
  8
DEFAULT
100
AcDbText
 10
166.8085
 20
21.0302
 30
0.0
 40
0.2074
  1
10
  7
ARIAL
100
AcDbText
  0
TEXT
  5
182
330
18
100
AcDbEntity
  8
DEFAULT
100
AcDbText
 10
154.5429
 20
21.0229
 30
0.0
 40
0.2074
  1
10
  7
ARIAL
100
AcDbText
  0
TEXT
  5
183
330
18
100
AcDbEntity
  8
DEFAULT
100
AcDbText
 10
155.1157
 20
21.0229
 30
0.0
 40
0.2074
  1
20
  7
ARIAL
100
AcDbText
  0
TEXT
  5
184
330
18
100
AcDbEntity
  8
DEFAULT
100
AcDbText
 10
156.3371
 20
21.0244
 30
0.0
 40
0.2074
  1
10
  7
ARIAL
100
AcDbText
  0
TEXT
  5
185
330
18
100
AcDbEntity
  8
DEFAULT
100
AcDbText
 10
156.9004
 20
21.0244
 30
0.0
 40
0.2074
  1
20
  7
ARIAL
100
AcDbText
  0
TEXT
  5
186
330
18
100
AcDbEntity
  8
DEFAULT
100
AcDbText
 10
157.9584
 20
21.0248
 30
0.0
 40
0.2074
  1
10
  7
ARIAL
100
AcDbText
  0
TEXT
  5
187
330
18
100
AcDbEntity
  8
DEFAULT
100
AcDbText
 10
158.5241
 20
21.0249
 30
0.0
 40
0.2074
  1
20
  7
ARIAL
100
AcDbText
  0
TEXT
  5
188
330
18
100
AcDbEntity
  8
DEFAULT
100
AcDbText
 10
160.3262
 20
21.0266
 30
0.0
 40
0.2074
  1
20
  7
ARIAL
100
AcDbText
  0
TEXT
  5
189
330
18
100
AcDbEntity
  8
DEFAULT
100
AcDbText
 10
161.4891
 20
21.027
 30
0.0
 40
0.2074
  1
10
  7
ARIAL
100
AcDbText
  0
TEXT
  5
18A
330
18
100
AcDbEntity
  8
DEFAULT
100
AcDbText
 10
162.0616
 20
21.0277
 30
0.0
 40
0.2074
  1
20
  7
ARIAL
100
AcDbText
  0
TEXT
  5
18B
330
18
100
AcDbEntity
  8
DEFAULT
100
AcDbText
 10
163.2805
 20
21.0279
 30
0.0
 40
0.2074
  1
10
  7
ARIAL
100
AcDbText
  0
TEXT
  5
18C
330
18
100
AcDbEntity
  8
DEFAULT
100
AcDbText
 10
163.8554
 20
21.0284
 30
0.0
 40
0.2074
  1
20
  7
ARIAL
100
AcDbText
  0
TEXT
  5
18D
330
18
100
AcDbEntity
  8
DEFAULT
100
AcDbText
 10
165.0102
 20
21.0295
 30
0.0
 40
0.2074
  1
10
  7
ARIAL
100
AcDbText
  0
TEXT
  5
18E
330
18
100
AcDbEntity
  8
DEFAULT
100
AcDbText
 10
165.5787
 20
21.0298
 30
0.0
 40
0.2074
  1
20
  7
ARIAL
100
AcDbText
  0
TEXT
  5
18F
330
18
100
AcDbEntity
  8
DEFAULT
100
AcDbText
 10
159.7523
 20
21.026
 30
0.0
 40
0.2074
  1
10
  7
ARIAL
100
AcDbText
  0
TEXT
  5
190
330
18
100
AcDbEntity
  8
DEFAULT
100
AcDbText
 10
154.4815
 20
21.3623
 30
0.0
 40
0.415
  1
JAN
  7
ARIAL
100
AcDbText
  0
LINE
  5
191
330
18
100
AcDbEntity
  8
DEFAULT
100
AcDbLine
 10
157.5215
 20
20.8875
 30
0.0
 11
157.5314
 21
11.7819
 31
0.0
  0
TEXT
  5
192
330
18
100
AcDbEntity
  8
DEFAULT
100
AcDbText
 10
156.1807
 20
21.3623
 30
0.0
 40
0.415
  1
FEB
  7
ARIAL
100
AcDbText
  0
TEXT
  5
193
330
18
100
AcDbEntity
  8
DEFAULT
100
AcDbText
 10
157.796
 20
21.3623
 30
0.0
 40
0.415
  1
MAR
  7
ARIAL
100
AcDbText
  0
TEXT
  5
194
330
18
100
AcDbEntity
  8
DEFAULT
100
AcDbText
 10
159.5888
 20
21.3623
 30
0.0
 40
0.415
  1
APR
  7
ARIAL
100
AcDbText
  0
TEXT
  5
195
330
18
100
AcDbEntity
  8
DEFAULT
100
AcDbText
 10
161.3417
 20
21.3623
 30
0.0
 40
0.415
  1
MAY
  7
ARIAL
100
AcDbText
  0
TEXT
  5
196
330
18
100
AcDbEntity
  8
DEFAULT
100
AcDbText
 10
163.1804
 20
21.3623
 30
0.0
 40
0.415
  1
JUN
  7
ARIAL
100
AcDbText
  0
TEXT
  5
197
330
18
100
AcDbEntity
  8
DEFAULT
100
AcDbText
 10
164.9721
 20
21.3623
 30
0.0
 40
0.415
  1
JUL
  7
ARIAL
100
AcDbText
  0
TEXT
  5
198
330
18
100
AcDbEntity
  8
DEFAULT
100
AcDbText
 10
166.6498
 20
21.3623
 30
0.0
 40
0.415
  1
AUG
  7
ARIAL
100
AcDbText
  0
TEXT
  5
199
330
18
100
AcDbEntity
  8
DEFAULT
100
AcDbText
 10
168.471
 20
21.3623
 30
0.0
 40
0.415
  1
SEP
  7
ARIAL
100
AcDbText
  0
TEXT
  5
19A
330
18
100
AcDbEntity
  8
DEFAULT
100
AcDbText
 10
170.1985
 20
21.3623
 30
0.0
 40
0.415
  1
OCT
  7
ARIAL
100
AcDbText
  0
TEXT
  5
19B
330
18
100
AcDbEntity
  8
DEFAULT
100
AcDbText
 10
171.9544
 20
21.3623
 30
0.0
 40
0.415
  1
NOV
  7
ARIAL
100
AcDbText
  0
TEXT
  5
19C
330
18
100
AcDbEntity
  8
DEFAULT
100
AcDbText
 10
173.7512
 20
21.3623
 30
0.0
 40
0.415
  1
DEC
  7
ARIAL
100
AcDbText
  0
LINE
  5
19D
330
18
100
AcDbEntity
  8
DEFAULT
100
AcDbLine
 10
175.2281
 20
20.8982
 30
0.0
 11
175.2361
 21
20.8982
 31
0.0
  0
TEXT
  5
19E
330
18
100
AcDbEntity
  8
DEFAULT
100
AcDbText
 10
175.1592
 20
21.0404
 30
0.0
 40
0.415
  1
1
  7
ARIAL
100
AcDbText
  0
TEXT
  5
19F
330
18
100
AcDbEntity
  8
DEFAULT
100
AcDbText
 10
175.4304
 20
21.127
 30
0.0
 40
0.3689
  1
MIN.
  7
ARIAL
100
AcDbText
  0
TEXT
  5
1A0
330
18
100
AcDbEntity
  8
DEFAULT
100
AcDbText
 10
152.886
 20
21.1207
 30
0.0
 40
0.3689
  1
MIN.
  7
ARIAL
100
AcDbText
  0
LINE
  5
1A1
330
18
100
AcDbEntity
  8
DEFAULT
100
AcDbLine
 10
154.1065
 20
21.6158
 30
0.0
 11
154.1065
 21
21.9246
 31
0.0
  0
LINE
  5
1A2
330
18
100
AcDbEntity
  8
DEFAULT
100
AcDbLine
 10
155.8965
 20
21.6158
 30
0.0
 11
155.8965
 21
21.9246
 31
0.0
  0
LINE
  5
1A3
330
18
100
AcDbEntity
  8
DEFAULT
100
AcDbLine
 10
157.5215
 20
21.6158
 30
0.0
 11
157.5215
 21
21.9246
 31
0.0
  0
LINE
  5
1A4
330
18
100
AcDbEntity
  8
DEFAULT
100
AcDbLine
 10
159.3169
 20
21.6158
 30
0.0
 11
159.3169
 21
21.9246
 31
0.0
  0
LINE
  5
1A5
330
18
100
AcDbEntity
  8
DEFAULT
100
AcDbLine
 10
161.053
 20
21.6158
 30
0.0
 11
161.053
 21
21.9246
 31
0.0
  0
LINE
  5
1A6
330
18
100
AcDbEntity
  8
DEFAULT
100
AcDbLine
 10
162.8484
 20
21.6158
 30
0.0
 11
162.8484
 21
21.9246
 31
0.0
  0
LINE
  5
1A7
330
18
100
AcDbEntity
  8
DEFAULT
100
AcDbLine
 10
164.5837
 20
21.6158
 30
0.0
 11
164.5837
 21
21.9246
 31
0.0
  0
LINE
  5
1A8
330
18
100
AcDbEntity
  8
DEFAULT
100
AcDbLine
 10
166.3656
 20
21.6158
 30
0.0
 11
166.3656
 21
21.9246
 31
0.0
  0
LINE
  5
1A9
330
18
100
AcDbEntity
  8
DEFAULT
100
AcDbLine
 10
168.1629
 20
21.6158
 30
0.0
 11
168.1629
 21
21.9246
 31
0.0
  0
LINE
  5
1AA
330
18
100
AcDbEntity
  8
DEFAULT
100
AcDbLine
 10
169.8954
 20
21.6158
 30
0.0
 11
169.8954
 21
21.9246
 31
0.0
  0
LINE
  5
1AB
330
18
100
AcDbEntity
  8
DEFAULT
100
AcDbLine
 10
171.694
 20
21.6158
 30
0.0
 11
171.694
 21
21.9246
 31
0.0
  0
LINE
  5
1AC
330
18
100
AcDbEntity
  8
DEFAULT
100
AcDbLine
 10
173.4298
 20
21.6158
 30
0.0
 11
173.4298
 21
21.9246
 31
0.0
  0
LINE
  5
1AD
330
18
100
AcDbEntity
  8
DEFAULT
100
AcDbLine
 10
175.2361
 20
21.6158
 30
0.0
 11
175.2361
 21
21.9246
 31
0.0
  0
ELLIPSE
  5
1AE
330
18
100
AcDbEntity
  8
DEFAULT
100
AcDbEllipse
 10
175.1944
 20
27.6295
 30
0.0
 11
0.0
 21
0.09
 31
0.0
210
0.0
220
0.0
230
1.0
 40
0.999444
 41
0.0
 42
6.283185307179586
  0
ELLIPSE
  5
1AF
330
18
100
AcDbEntity
  8
DEFAULT
100
AcDbEllipse
 10
154.0595
 20
27.6295
 30
0.0
 11
0.0902
 21
0.0
 31
0.0
210
0.0
220
0.0
230
1.0
 40
0.99723
 41
0.0
 42
6.283185307179586
  0
LINE
  5
1B0
330
18
100
AcDbEntity
  8
DEFAULT
100
AcDbLine
 10
152.5575
 20
10.9731
 30
0.0
 11
176.7749
 21
11.0027
 31
0.0
  0
TEXT
  5
1B1
330
18
100
AcDbEntity
  8
DEFAULT
100
AcDbText
 10
173.9555
 20
11.3493
 30
0.0
 40
0.1793
  1
John L. Carmichael Jr.
  7
ARIAL
100
AcDbText
  0
LINE
  5
1B2
330
18
100
AcDbEntity
  8
DEFAULT
100
AcDbLine
 10
153.9732
 20
16.586
 30
0.0
 11
175.3799
 21
16.6017
 31
0.0
  0
POINT
  5
1B3
330
18
100
AcDbEntity
  8
DEFAULT
 62
     1
100
AcDbPoint
 10
158.7272
 20
18.5969
 30
0.0
  0
POINT
  5
1B4
330
18
100
AcDbEntity
  8
DEFAULT
 62
     1
100
AcDbPoint
 10
174.6627
 20
16.3327
 30
0.0
  0
ELLIPSE
  5
1B5
330
18
100
AcDbEntity
  8
DEFAULT
100
AcDbEllipse
 10
156.4732
 20
20.5873
 30
0.0
 11
0.0367
 21
0.0
 31
0.0
210
0.0
220
0.0
230
1.0
 40
0.997275
 41
0.0
 42
6.283185307179586
  0
ELLIPSE
  5
1B6
330
18
100
AcDbEntity
  8
DEFAULT
100
AcDbEllipse
 10
157.0465
 20
20.4529
 30
0.0
 11
0.0365
 21
0.0
 31
0.0
210
0.0
220
0.0
230
1.0
 40
0.994521
 41
0.0
 42
6.283185307179586
  0
ELLIPSE
  5
1B7
330
18
100
AcDbEntity
  8
DEFAULT
100
AcDbEllipse
 10
157.5165
 20
20.1327
 30
0.0
 11
0.0364
 21
0.0
 31
0.0
210
0.0
220
0.0
230
1.0
 40
0.998628
 41
0.0
 42
6.283185307179586
  0
ELLIPSE
  5
1B8
330
18
100
AcDbEntity
  8
DEFAULT
100
AcDbEllipse
 10
158.0951
 20
19.4841
 30
0.0
 11
0.0
 21
0.0368
 31
0.0
210
0.0
220
0.0
230
1.0
 40
0.9972859999999999
 41
0.0
 42
6.283185307179586
  0
ELLIPSE
  5
1B9
330
18
100
AcDbEntity
  8
DEFAULT
100
AcDbEllipse
 10
159.315
 20
17.7049
 30
0.0
 11
0.0
 21
0.0363
 31
0.0
210
0.0
220
0.0
230
1.0
 40
0.9972450000000001
 41
0.0
 42
6.283185307179586
  0
ELLIPSE
  5
1BA
330
18
100
AcDbEntity
  8
DEFAULT
100
AcDbEllipse
 10
159.8905
 20
16.8938
 30
0.0
 11
0.0365
 21
0.0
 31
0.0
210
0.0
220
0.0
230
1.0
 40
0.995896
 41
0.0
 42
6.283185307179586
  0
ELLIPSE
  5
1BB
330
18
100
AcDbEntity
  8
DEFAULT
100
AcDbEllipse
 10
160.4793
 20
16.1971
 30
0.0
 11
0.0371
 21
0.0
 31
0.0
210
0.0
220
0.0
230
1.0
 40
0.979784
 41
0.0
 42
6.283185307179586
  0
ELLIPSE
  5
1BC
330
18
100
AcDbEntity
  8
DEFAULT
100
AcDbEllipse
 10
161.0525
 20
15.7427
 30
0.0
 11
0.0368
 21
0.0
 31
0.0
210
0.0
220
0.0
230
1.0
 40
0.986413
 41
0.0
 42
6.283185307179586
  0
ELLIPSE
  5
1BD
330
18
100
AcDbEntity
  8
DEFAULT
100
AcDbEllipse
 10
161.6308
 20
15.5486
 30
0.0
 11
0.0
 21
0.0365
 31
0.0
210
0.0
220
0.0
230
1.0
 40
0.994528
 41
0.0
 42
6.283185307179586
  0
ELLIPSE
  5
1BE
330
18
100
AcDbEntity
  8
DEFAULT
100
AcDbEllipse
 10
162.2164
 20
15.6297
 30
0.0
 11
0.0366
 21
0.0
 31
0.0
210
0.0
220
0.0
230
1.0
 40
0.991803
 41
0.0
 42
6.283185307179586
  0
ELLIPSE
  5
1BF
330
18
100
AcDbEntity
  8
DEFAULT
100
AcDbEllipse
 10
162.8548
 20
15.9881
 30
0.0
 11
0.0
 21
0.0364
 31
0.0
210
0.0
220
0.0
230
1.0
 40
0.995885
 41
0.0
 42
6.283185307179586
  0
ELLIPSE
  5
1C0
330
18
100
AcDbEntity
  8
DEFAULT
100
AcDbEllipse
 10
163.4285
 20
16.4979
 30
0.0
 11
0.0
 21
0.0367
 31
0.0
210
0.0
220
0.0
230
1.0
 40
0.9959130000000001
 41
0.0
 42
6.283185307179586
  0
CIRCLE
  5
1C1
330
18
100
AcDbEntity
  8
DEFAULT
100
AcDbCircle
 10
164.5806
 20
17.6368
 30
0.0
 40
0.0365
  0
ELLIPSE
  5
1C2
330
18
100
AcDbEntity
  8
DEFAULT
100
AcDbEllipse
 10
165.1485
 20
18.0762
 30
0.0
 11
0.0
 21
0.037
 31
0.0
210
0.0
220
0.0
230
1.0
 40
0.9905530000000001
 41
0.0
 42
6.283185307179586
  0
ELLIPSE
  5
1C3
330
18
100
AcDbEntity
  8
DEFAULT
100
AcDbEllipse
 10
166.3631
 20
18.2779
 30
0.0
 11
0.0366
 21
0.0
 31
0.0
210
0.0
220
0.0
230
1.0
 40
0.994543
 41
0.0
 42
6.283185307179586
  0
ELLIPSE
  5
1C4
330
18
100
AcDbEntity
  8
DEFAULT
100
AcDbEllipse
 10
166.9491
 20
17.9068
 30
0.0
 11
0.0
 21
0.0368
 31
0.0
210
0.0
220
0.0
230
1.0
 40
0.9945649999999999
 41
0.0
 42
6.283185307179586
  0
ELLIPSE
  5
1C5
330
18
100
AcDbEntity
  8
DEFAULT
100
AcDbEllipse
 10
167.5244
 20
17.3036
 30
0.0
 11
0.0
 21
0.0365
 31
0.0
210
0.0
220
0.0
230
1.0
 40
0.997264
 41
0.0
 42
6.283185307179586
  0
ELLIPSE
  5
1C6
330
18
100
AcDbEntity
  8
DEFAULT
100
AcDbEllipse
 10
168.1634
 20
16.4139
 30
0.0
 11
0.0365
 21
0.0
 31
0.0
210
0.0
220
0.0
230
1.0
 40
0.9904239999999999
 41
0.0
 42
6.283185307179586
  0
ELLIPSE
  5
1C7
330
18
100
AcDbEntity
  8
DEFAULT
100
AcDbEllipse
 10
168.7446
 20
15.398
 30
0.0
 11
0.0368
 21
0.0
 31
0.0
210
0.0
220
0.0
230
1.0
 40
0.9972859999999999
 41
0.0
 42
6.283185307179586
  0
ELLIPSE
  5
1C8
330
18
100
AcDbEntity
  8
DEFAULT
100
AcDbEllipse
 10
169.9084
 20
13.3857
 30
0.0
 11
0.0366
 21
0.0
 31
0.0
210
0.0
220
0.0
230
1.0
 40
0.9972709999999999
 41
0.0
 42
6.283185307179586
  0
ELLIPSE
  5
1C9
330
18
100
AcDbEntity
  8
DEFAULT
100
AcDbEllipse
 10
170.4928
 20
12.5995
 30
0.0
 11
0.0
 21
0.0366
 31
0.0
210
0.0
220
0.0
230
1.0
 40
0.993179
 41
0.0
 42
6.283185307179586
  0
ELLIPSE
  5
1CA
330
18
100
AcDbEntity
  8
DEFAULT
100
AcDbEllipse
 10
171.0813
 20
12.086
 30
0.0
 11
0.0369
 21
0.0
 31
0.0
210
0.0
220
0.0
230
1.0
 40
0.9864679999999999
 41
0.0
 42
6.283185307179586
  0
ELLIPSE
  5
1CB
330
18
100
AcDbEntity
  8
DEFAULT
100
AcDbEllipse
 10
171.7094
 20
11.9439
 30
0.0
 11
0.0
 21
0.0364
 31
0.0
210
0.0
220
0.0
230
1.0
 40
0.9986259999999999
 41
0.0
 42
6.283185307179586
  0
CIRCLE
  5
1CC
330
18
100
AcDbEntity
  8
DEFAULT
100
AcDbCircle
 10
172.295
 20
12.2013
 30
0.0
 40
0.0363
  0
ELLIPSE
  5
1CD
330
18
100
AcDbEntity
  8
DEFAULT
100
AcDbEllipse
 10
172.8764
 20
12.8372
 30
0.0
 11
0.0
 21
0.0367
 31
0.0
210
0.0
220
0.0
230
1.0
 40
0.991837
 41
0.0
 42
6.283185307179586
  0
ELLIPSE
  5
1CE
330
18
100
AcDbEntity
  8
DEFAULT
100
AcDbEllipse
 10
173.4514
 20
13.7735
 30
0.0
 11
0.0369
 21
0.0
 31
0.0
210
0.0
220
0.0
230
1.0
 40
0.9850950000000001
 41
0.0
 42
6.283185307179586
  0
ELLIPSE
  5
1CF
330
18
100
AcDbEntity
  8
DEFAULT
100
AcDbEllipse
 10
174.0229
 20
14.9182
 30
0.0
 11
0.0
 21
0.0367
 31
0.0
210
0.0
220
0.0
230
1.0
 40
0.9972790000000001
 41
0.0
 42
6.283185307179586
  0
ELLIPSE
  5
1D0
330
18
100
AcDbEntity
  8
DEFAULT
100
AcDbEllipse
 10
175.2416
 20
17.6198
 30
0.0
 11
0.0369
 21
0.0
 31
0.0
210
0.0
220
0.0
230
1.0
 40
0.9810549999999999
 41
0.0
 42
6.283185307179586
  0
POINT
  5
1D1
330
18
100
AcDbEntity
  8
DEFAULT
 62
     1
100
AcDbPoint
 10
165.7277
 20
18.3178
 30
0.0
  0
ELLIPSE
  5
1D2
330
18
100
AcDbEntity
  8
DEFAULT
100
AcDbEllipse
 10
165.7275
 20
18.3177
 30
0.0
 11
0.0
 21
0.0365
 31
0.0
210
0.0
220
0.0
230
1.0
 40
0.998632
 41
0.0
 42
6.283185307179586
  0
LINE
  5
1D3
330
18
100
AcDbEntity
  8
DEFAULT
100
AcDbLine
 10
153.9735
 20
16.5375
 30
0.0
 11
175.3802
 21
16.553
 31
0.0
  0
LINE
  5
1D4
330
18
100
AcDbEntity
  8
DEFAULT
100
AcDbLine
 10
153.9735
 20
16.5618
 30
0.0
 11
175.3802
 21
16.5769
 31
0.0
  0
LINE
  5
1D5
330
18
100
AcDbEntity
  8
DEFAULT
100
AcDbLine
 10
154.109
 20
17.65
 30
0.0
 11
154.1426
 21
17.7153
 31
0.0
  0
TEXT
  5
1D6
330
18
100
AcDbEntity
  8
DEFAULT
100
AcDbText
 10
161.8164
 20
19.0925
 30
0.0
 40
0.5123
  1
SUNDIAL SLOW
  7
ARIAL_BOLD
100
AcDbText
  0
TEXT
  5
1D7
330
18
100
AcDbEntity
  8
DEFAULT
100
AcDbText
 10
161.9562
 20
13.4811
 30
0.0
 40
0.5123
  1
SUNDIAL FAST
  7
ARIAL_BOLD
100
AcDbText
  0
ELLIPSE
  5
1D8
330
18
100
AcDbEntity
  8
DEFAULT
 62
     1
100
AcDbEllipse
 10
158.7271
 20
18.597
 30
0.0
 11
0.0
 21
0.0732
 31
0.0
210
0.0
220
0.0
230
1.0
 40
0.9993169999999999
 41
0.0
 42
6.283185307179586
  0
ELLIPSE
  5
1D9
330
18
100
AcDbEntity
  8
DEFAULT
 62
     1
100
AcDbEllipse
 10
164.0862
 20
17.1378
 30
0.0
 11
0.0728
 21
0.0
 31
0.0
210
0.0
220
0.0
230
1.0
 40
0.999314
 41
0.0
 42
6.283185307179586
  0
ELLIPSE
  5
1DA
330
18
100
AcDbEntity
  8
DEFAULT
 62
     1
100
AcDbEllipse
 10
169.3738
 20
14.2758
 30
0.0
 11
0.0
 21
0.0731
 31
0.0
210
0.0
220
0.0
230
1.0
 40
0.998633
 41
0.0
 42
6.283185307179586
  0
ELLIPSE
  5
1DB
330
18
100
AcDbEntity
  8
DEFAULT
 62
     1
100
AcDbEllipse
 10
174.6624
 20
16.3323
 30
0.0
 11
0.0
 21
0.0731
 31
0.0
210
0.0
220
0.0
230
1.0
 40
0.996582
 41
0.0
 42
6.283185307179586
  0
LINE
  5
1DC
330
18
100
AcDbEntity
  8
DEFAULT
100
AcDbLine
 10
154.1065
 20
21.9246
 30
0.0
 11
175.2361
 21
21.9246
 31
0.0
  0
LINE
  5
1DD
330
18
100
AcDbEntity
  8
DEFAULT
100
AcDbLine
 10
152.5575
 20
29.0021
 30
0.0
 11
176.7749
 21
29.0021
 31
0.0
  0
LINE
  5
1DE
330
18
100
AcDbEntity
  8
DEFAULT
100
AcDbLine
 10
176.7749
 20
11.0027
 30
0.0
 11
176.7749
 21
29.0021
 31
0.0
  0
ELLIPSE
  5
1DF
330
18
100
AcDbEntity
  8
DEFAULT
100
AcDbEllipse
 10
155.8896
 20
20.3623
 30
0.0
 11
0.0
 21
0.0365
 31
0.0
210
0.0
220
0.0
230
1.0
 40
0.991792
 41
0.0
 42
6.283185307179586
  0
POINT
  5
1E0
330
18
100
AcDbEntity
  8
DEFAULT
 62
     1
100
AcDbPoint
 10
154.6943
 20
18.7898
 30
0.0
  0
CIRCLE
  5
1E1
330
18
100
AcDbEntity
  8
DEFAULT
100
AcDbCircle
 10
155.2688
 20
19.7287
 30
0.0
 40
0.0365
  0
CIRCLE
  5
1E2
330
18
100
AcDbEntity
  8
DEFAULT
100
AcDbCircle
 10
154.6943
 20
18.7898
 30
0.0
 40
0.0365
  0
LINE
  5
1E3
330
18
100
AcDbEntity
  8
DEFAULT
100
AcDbLine
 10
154.6822
 20
20.8856
 30
0.0
 11
154.6826
 21
20.7495
 31
0.0
  0
LINE
  5
1E4
330
18
100
AcDbEntity
  8
DEFAULT
100
AcDbLine
 10
155.2666
 20
20.8857
 30
0.0
 11
155.2669
 21
20.7495
 31
0.0
  0
LINE
  5
1E5
330
18
100
AcDbEntity
  8
DEFAULT
100
AcDbLine
 10
156.4764
 20
20.8874
 30
0.0
 11
156.4765
 21
20.7501
 31
0.0
  0
LINE
  5
1E6
330
18
100
AcDbEntity
  8
DEFAULT
100
AcDbLine
 10
157.0513
 20
20.8875
 30
0.0
 11
157.0523
 21
20.7504
 31
0.0
  0
LINE
  5
1E7
330
18
100
AcDbEntity
  8
DEFAULT
100
AcDbLine
 10
158.0977
 20
20.8875
 30
0.0
 11
158.0979
 21
20.7515
 31
0.0
  0
LINE
  5
1E8
330
18
100
AcDbEntity
  8
DEFAULT
100
AcDbLine
 10
158.675
 20
20.8881
 30
0.0
 11
158.6751
 21
20.7519
 31
0.0
  0
LINE
  5
1E9
330
18
100
AcDbEntity
  8
DEFAULT
100
AcDbLine
 10
159.8916
 20
20.8887
 30
0.0
 11
159.892
 21
20.7528
 31
0.0
  0
LINE
  5
1EA
330
18
100
AcDbEntity
  8
DEFAULT
100
AcDbLine
 10
160.4771
 20
20.8895
 30
0.0
 11
160.4775
 21
20.7528
 31
0.0
  0
LINE
  5
1EB
330
18
100
AcDbEntity
  8
DEFAULT
100
AcDbLine
 10
161.6284
 20
20.8895
 30
0.0
 11
161.6297
 21
20.7537
 31
0.0
  0
LINE
  5
1EC
330
18
100
AcDbEntity
  8
DEFAULT
100
AcDbLine
 10
162.2125
 20
20.8908
 30
0.0
 11
162.2132
 21
20.7542
 31
0.0
  0
LINE
  5
1ED
330
18
100
AcDbEntity
  8
DEFAULT
100
AcDbLine
 10
163.4198
 20
20.8911
 30
0.0
 11
163.4215
 21
20.7549
 31
0.0
  0
LINE
  5
1EE
330
18
100
AcDbEntity
  8
DEFAULT
100
AcDbLine
 10
164.0063
 20
20.8914
 30
0.0
 11
164.0068
 21
20.7551
 31
0.0
  0
LINE
  5
1EF
330
18
100
AcDbEntity
  8
DEFAULT
100
AcDbLine
 10
165.1495
 20
20.7475
 30
0.0
 11
165.1495
 21
20.8918
 31
0.0
  0
LINE
  5
1F0
330
18
100
AcDbEntity
  8
DEFAULT
100
AcDbLine
 10
165.7296
 20
20.7561
 30
0.0
 11
165.7296
 21
20.8928
 31
0.0
  0
LINE
  5
1F1
330
18
100
AcDbEntity
  8
DEFAULT
100
AcDbLine
 10
166.9478
 20
20.7574
 30
0.0
 11
166.9478
 21
20.8934
 31
0.0
  0
LINE
  5
1F2
330
18
100
AcDbEntity
  8
DEFAULT
100
AcDbLine
 10
167.5214
 20
20.7575
 30
0.0
 11
167.5214
 21
20.8941
 31
0.0
  0
LINE
  5
1F3
330
18
100
AcDbEntity
  8
DEFAULT
100
AcDbLine
 10
168.7351
 20
20.7578
 30
0.0
 11
168.7351
 21
20.8945
 31
0.0
  0
LINE
  5
1F4
330
18
100
AcDbEntity
  8
DEFAULT
100
AcDbLine
 10
169.3169
 20
20.7591
 30
0.0
 11
169.3169
 21
20.8947
 31
0.0
  0
LINE
  5
1F5
330
18
100
AcDbEntity
  8
DEFAULT
100
AcDbLine
 10
170.4802
 20
20.7596
 30
0.0
 11
170.4802
 21
20.8961
 31
0.0
  0
LINE
  5
1F6
330
18
100
AcDbEntity
  8
DEFAULT
100
AcDbLine
 10
171.062
 20
20.7596
 30
0.0
 11
171.062
 21
20.8963
 31
0.0
  0
LINE
  5
1F7
330
18
100
AcDbEntity
  8
DEFAULT
100
AcDbLine
 10
172.2724
 20
20.8967
 30
0.0
 11
172.273
 21
20.7607
 31
0.0
  0
LINE
  5
1F8
330
18
100
AcDbEntity
  8
DEFAULT
100
AcDbLine
 10
172.8617
 20
20.7607
 30
0.0
 11
172.8617
 21
20.8968
 31
0.0
  0
LINE
  5
1F9
330
18
100
AcDbEntity
  8
DEFAULT
100
AcDbLine
 10
174.0095
 20
20.7615
 30
0.0
 11
174.0095
 21
20.8985
 31
0.0
  0
LINE
  5
1FA
330
18
100
AcDbEntity
  8
DEFAULT
100
AcDbLine
 10
174.5935
 20
20.7618
 30
0.0
 11
174.5935
 21
20.8988
 31
0.0
  0
LINE
  5
1FB
330
18
100
AcDbEntity
  8
DEFAULT
100
AcDbLine
 10
154.1067
 20
19.9091
 30
0.0
 11
175.2378
 21
19.9248
 31
0.0
  0
LINE
  5
1FC
330
18
100
AcDbEntity
  8
DEFAULT
100
AcDbLine
 10
162.8484
 20
20.8911
 30
0.0
 11
162.8497
 21
19.9155
 31
0.0
  0
LINE
  5
1FD
330
18
100
AcDbEntity
  8
DEFAULT
100
AcDbLine
 10
164.5837
 20
20.8916
 30
0.0
 11
164.5841
 21
19.9168
 31
0.0
  0
LINE
  5
1FE
330
18
100
AcDbEntity
  8
DEFAULT
100
AcDbLine
 10
166.3656
 20
20.8934
 30
0.0
 11
166.3665
 21
19.9182
 31
0.0
  0
LINE
  5
1FF
330
18
100
AcDbEntity
  8
DEFAULT
100
AcDbLine
 10
153.9709
 20
19.3477
 30
0.0
 11
161.0547
 21
19.3518
 31
0.0
  0
LINE
  5
200
330
18
100
AcDbEntity
  8
DEFAULT
100
AcDbLine
 10
168.165
 20
19.3555
 30
0.0
 11
175.3758
 21
19.3604
 31
0.0
  0
LINE
  5
201
330
18
100
AcDbEntity
  8
DEFAULT
100
AcDbLine
 10
154.1069
 20
19.6284
 30
0.0
 11
161.0544
 21
19.6325
 31
0.0
  0
LINE
  5
202
330
18
100
AcDbEntity
  8
DEFAULT
100
AcDbLine
 10
154.109
 20
19.0706
 30
0.0
 11
161.0551
 21
19.0747
 31
0.0
  0
LINE
  5
203
330
18
100
AcDbEntity
  8
DEFAULT
100
AcDbLine
 10
168.1646
 20
19.6368
 30
0.0
 11
175.2381
 21
19.6412
 31
0.0
  0
LINE
  5
204
330
18
100
AcDbEntity
  8
DEFAULT
100
AcDbLine
 10
168.1654
 20
19.079
 30
0.0
 11
175.2391
 21
19.0834
 31
0.0
  0
LINE
  5
205
330
18
100
AcDbEntity
  8
DEFAULT
100
AcDbLine
 10
161.053
 20
20.8895
 30
0.0
 11
161.0608
 21
14.5208
 31
0.0
  0
LINE
  5
206
330
18
100
AcDbEntity
  8
DEFAULT
100
AcDbLine
 10
161.0608
 20
14.5208
 30
0.0
 11
161.0642
 21
11.7864
 31
0.0
  0
LINE
  5
207
330
18
100
AcDbEntity
  8
DEFAULT
100
AcDbLine
 10
162.8582
 20
13.1937
 30
0.0
 11
162.8599
 21
11.7888
 31
0.0
  0
LINE
  5
208
330
18
100
AcDbEntity
  8
DEFAULT
100
AcDbLine
 10
164.5893
 20
13.1963
 30
0.0
 11
164.5897
 21
11.7909
 31
0.0
  0
LINE
  5
209
330
18
100
AcDbEntity
  8
DEFAULT
100
AcDbLine
 10
166.3786
 20
13.1989
 30
0.0
 11
166.3816
 21
11.7936
 31
0.0
  0
LINE
  5
20A
330
18
100
AcDbEntity
  8
DEFAULT
100
AcDbLine
 10
168.1737
 20
13.4844
 30
0.0
 11
175.2487
 21
13.4928
 31
0.0
  0
LINE
  5
20B
330
18
100
AcDbEntity
  8
DEFAULT
100
AcDbLine
 10
168.1732
 20
13.7664
 30
0.0
 11
175.385
 21
13.7763
 31
0.0
  0
LINE
  5
20C
330
18
100
AcDbEntity
  8
DEFAULT
100
AcDbLine
 10
168.1728
 20
14.0431
 30
0.0
 11
175.248
 21
14.052
 31
0.0
  0
LINE
  5
20D
330
18
100
AcDbEntity
  8
DEFAULT
100
AcDbLine
 10
166.3685
 20
18.798
 30
0.0
 11
166.3769
 21
14.3236
 31
0.0
  0
LINE
  5
20E
330
18
100
AcDbEntity
  8
DEFAULT
100
AcDbLine
 10
164.5854
 20
18.7967
 30
0.0
 11
164.5887
 21
14.3218
 31
0.0
  0
LINE
  5
20F
330
18
100
AcDbEntity
  8
DEFAULT
100
AcDbLine
 10
162.8507
 20
18.7656
 30
0.0
 11
162.8561
 21
14.3199
 31
0.0
  0
LINE
  5
210
330
18
100
AcDbEntity
  8
DEFAULT
100
AcDbLine
 10
153.9762
 20
13.7454
 30
0.0
 11
161.0616
 21
13.756
 31
0.0
  0
LINE
  5
211
330
18
100
AcDbEntity
  8
DEFAULT
100
AcDbLine
 10
154.1124
 20
14.0258
 30
0.0
 11
161.0613
 21
14.0343
 31
0.0
  0
LINE
  5
212
330
18
100
AcDbEntity
  8
DEFAULT
100
AcDbLine
 10
154.1136
 20
13.4683
 30
0.0
 11
161.0619
 21
13.4763
 31
0.0
  0
TEXT
  5
213
330
18
100
AcDbEntity
  8
DEFAULT
100
AcDbText
 10
155.1764
 20
27.6352
 30
0.0
 40
0.6472
  1
THE EQUATION OF TIME
  7
ENGRAVERS_MT_MEDIUM
100
AcDbText
  0
TEXT
  5
214
330
18
100
AcDbEntity
  8
DEFAULT
100
AcDbText
 10
154.3507
 20
24.2766
 30
0.0
 40
0.6555
  1
TO OBTAIN WATCH TIME, ADD OR SUBTRACT
  7
ARIAL_BOLD
100
AcDbText
  0
TEXT
  5
215
330
18
100
AcDbEntity
  8
DEFAULT
100
AcDbText
 10
152.9929
 20
23.3713
 30
0.0
 40
0.6555
  1
THE NUMBER OF MINUTES SHOWN  ON THE GRAPH
  7
ARIAL_BOLD
100
AcDbText
  0
TEXT
  5
216
330
18
100
AcDbEntity
  8
DEFAULT
100
AcDbText
 10
153.7396
 20
22.4677
 30
0.0
 40
0.6555
  1
FOR TODAY'S DATE TO OR FROM SUNDIAL TIME
  7
ARIAL_BOLD
100
AcDbText
  0
POINT
  5
217
330
18
100
AcDbEntity
  8
DEFAULT
 62
     1
100
AcDbPoint
 10
164.6652
 20
26.1735
 30
0.0
  0
CIRCLE
  5
218
330
18
100
AcDbEntity
  8
DEFAULT
100
AcDbCircle
 10
164.6659
 20
7.9946
 30
0.0
 40
0.2499
  0
CIRCLE
  5
219
330
18
100
AcDbEntity
  8
DEFAULT
100
AcDbCircle
 10
164.6662
 20
7.9943
 30
0.0
 40
0.1316
  0
CIRCLE
  5
21A
330
18
100
AcDbEntity
  8
DEFAULT
100
AcDbCircle
 10
164.6662
 20
-11.9179
 30
0.0
 40
0.1316
  0
CIRCLE
  5
21B
330
18
100
AcDbEntity
  8
DEFAULT
100
AcDbCircle
 10
164.6662
 20
-53.4277
 30
0.0
 40
0.1316
  0
TEXT
  5
21C
330
18
100
AcDbEntity
  8
DEFAULT
100
AcDbText
 10
187.1287
 20
-14.6366
 30
0.0
 40
1.5789
  1
NORTH
  7
ARIAL_BOLD
100
AcDbText
  0
LINE
  5
21D
330
18
100
AcDbEntity
  8
DEFAULT
 62
     1
100
AcDbLine
 10
189.0817
 20
-22.3832
 30
0.0
 11
190.8497
 21
-24.4491
 31
0.0
  0
LINE
  5
21E
330
18
100
AcDbEntity
  8
DEFAULT
 62
     1
100
AcDbLine
 10
190.8497
 20
-24.4491
 30
0.0
 11
190.8497
 21
-15.7924
 31
0.0
  0
LINE
  5
21F
330
18
100
AcDbEntity
  8
DEFAULT
 62
     1
100
AcDbLine
 10
190.8497
 20
-24.4491
 30
0.0
 11
192.6177
 21
-22.3832
 31
0.0
  0
LINE
  5
220
330
18
100
AcDbEntity
  8
DEFAULT
100
AcDbLine
 10
151.0774
 20
30.5045
 30
0.0
 11
178.255
 21
30.5045
 31
0.0
  0
LINE
  5
221
330
18
100
AcDbEntity
  8
DEFAULT
100
AcDbLine
 10
151.0774
 20
-55.3117
 30
0.0
 11
151.0774
 21
30.5045
 31
0.0
  0
LINE
  5
222
330
18
100
AcDbEntity
  8
DEFAULT
100
AcDbLine
 10
178.255
 20
-55.3117
 30
0.0
 11
178.255
 21
30.5045
 31
0.0
  0
LINE
  5
223
330
18
100
AcDbEntity
  8
DEFAULT
100
AcDbLine
 10
151.0774
 20
-55.3117
 30
0.0
 11
178.255
 21
-55.3117
 31
0.0
  0
LINE
  5
224
330
18
100
AcDbEntity
  8
DEFAULT
100
AcDbLine
 10
21.5668
 20
0.1628
 30
0.0
 11
46.0455
 21
20.0085
 31
0.0
  0
TEXT
  5
225
330
18
100
AcDbEntity
  8
DEFAULT
100
AcDbText
 10
59.0272
 20
-25.2315
 30
0.0
 40
1.2
  1
1 JUN
 50
90.0
  7
ENGRAVERS_MT_MEDIUM
100
AcDbText
  0
TEXT
  5
226
330
18
100
AcDbEntity
  8
DEFAULT
100
AcDbText
 10
64.32850000000001
 20
-25.86
 30
0.0
 40
1.2
  1
1 MAY
 50
90.0
  7
ENGRAVERS_MT_MEDIUM
100
AcDbText
  0
TEXT
  5
227
330
18
100
AcDbEntity
  8
DEFAULT
100
AcDbText
 10
73.4269
 20
-25.3
 30
0.0
 40
1.2
  1
1 APR
 50
90.0
  7
ENGRAVERS_MT_MEDIUM
100
AcDbText
  0
TEXT
  5
228
330
18
100
AcDbEntity
  8
DEFAULT
100
AcDbText
 10
87.3241
 20
-25.9044
 30
0.0
 40
1.2
  1
1 MAR
 50
90.0
  7
ENGRAVERS_MT_MEDIUM
100
AcDbText
  0
TEXT
  5
229
330
18
100
AcDbEntity
  8
DEFAULT
100
AcDbText
 10
103.4902
 20
-24.8125
 30
0.0
 40
1.2
  1
1 FEB
 50
90.0
  7
ENGRAVERS_MT_MEDIUM
100
AcDbText
  0
TEXT
  5
22A
330
18
100
AcDbEntity
  8
DEFAULT
100
AcDbText
 10
118.2249
 20
-24.9521
 30
0.0
 40
1.2
  1
1 JAN
 50
90.0
  7
ENGRAVERS_MT_MEDIUM
100
AcDbText
  0
TEXT
  5
22B
330
18
100
AcDbEntity
  8
DEFAULT
100
AcDbText
 10
114.7646
 20
-12.0459
 30
0.0
 40
1.2
  1
DEC 1
 50
90.0
  7
ENGRAVERS_MT_MEDIUM
100
AcDbText
  0
TEXT
  5
22C
330
18
100
AcDbEntity
  8
DEFAULT
100
AcDbText
 10
98.1949
 20
-12.0459
 30
0.0
 40
1.2
  1
NOV 1
 50
90.0
  7
ENGRAVERS_MT_MEDIUM
100
AcDbText
  0
TEXT
  5
22D
330
18
100
AcDbEntity
  8
DEFAULT
100
AcDbText
 10
81.66
 20
-12.0459
 30
0.0
 40
1.2
  1
OCT 1
 50
90.0
  7
ENGRAVERS_MT_MEDIUM
100
AcDbText
  0
TEXT
  5
22E
330
18
100
AcDbEntity
  8
DEFAULT
100
AcDbText
 10
69.9808
 20
-12.0459
 30
0.0
 40
1.2
  1
SEP 1
 50
90.0
  7
ENGRAVERS_MT_MEDIUM
100
AcDbText
  0
TEXT
  5
22F
330
18
100
AcDbEntity
  8
DEFAULT
100
AcDbText
 10
62.0837
 20
-12.0459
 30
0.0
 40
1.2
  1
AUG 1
 50
90.0
  7
ENGRAVERS_MT_MEDIUM
100
AcDbText
  0
TEXT
  5
230
330
18
100
AcDbEntity
  8
DEFAULT
100
AcDbText
 10
58.3731
 20
-12.0459
 30
0.0
 40
1.2
  1
JUL 1
 50
90.0
  7
ENGRAVERS_MT_MEDIUM
100
AcDbText
  0
SOLID
  5
231
330
18
100
AcDbEntity
  8
DEFAULT
 62
     3
100
AcDbTrace
 10
152.7424
 20
36.8098
 30
0.0
 11
152.7424
 21
36.7447
 31
0.0
 12
152.5575
 22
36.7773
 32
0.0
 13
152.5575
 23
36.7773
 33
0.0
  0
SOLID
  5
232
330
18
100
AcDbEntity
  8
DEFAULT
 62
     3
100
AcDbTrace
 10
176.5899
 20
36.7447
 30
0.0
 11
176.5899
 21
36.8098
 31
0.0
 12
176.7749
 22
36.7773
 32
0.0
 13
176.7749
 23
36.7773
 33
0.0
  0
LINE
  5
233
330
18
100
AcDbEntity
  8
DEFAULT
 62
     3
100
AcDbLine
 10
152.5575
 20
36.7773
 30
0.0
 11
163.1582
 21
36.7773
 31
0.0
  0
LINE
  5
234
330
18
100
AcDbEntity
  8
DEFAULT
 62
     3
100
AcDbLine
 10
167.6186
 20
36.7773
 30
0.0
 11
176.7749
 21
36.7773
 31
0.0
  0
TEXT
  5
235
330
18
100
AcDbEntity
  8
DEFAULT
 62
     3
100
AcDbText
 10
163.2208
 20
36.1327
 30
0.0
 40
1.2632
  1
24 3/16
  7
ARIAL_BOLD
100
AcDbText
  0
LINE
  5
236
330
18
100
AcDbEntity
  8
DEFAULT
 62
     3
100
AcDbLine
 10
152.5575
 20
29.0646
 30
0.0
 11
152.5575
 21
36.9023
 31
0.0
  0
LINE
  5
237
330
18
100
AcDbEntity
  8
DEFAULT
 62
     3
100
AcDbLine
 10
176.7749
 20
29.0646
 30
0.0
 11
176.7749
 21
36.9023
 31
0.0
  0
LINE
  5
238
330
18
100
AcDbEntity
  8
DEFAULT
100
AcDbLine
 10
175.2361
 20
20.8982
 30
0.0
 11
175.2516
 21
11.8042
 31
0.0
  0
LINE
  5
239
330
18
100
AcDbEntity
  8
DEFAULT
100
AcDbLine
 10
152.5575
 20
10.9731
 30
0.0
 11
152.5575
 21
29.0021
 31
0.0
  0
TEXT
  5
23A
330
18
100
AcDbEntity
  8
DEFAULT
100
AcDbText
 10
82.87430000000001
 20
19.0237
 30
0.0
 40
1.5789
  1
NORTH
  7
ARIAL_BOLD
100
AcDbText
  0
LINE
  5
23B
330
18
100
AcDbEntity
  8
DEFAULT
 62
     1
100
AcDbLine
 10
92.0281
 20
20.0156
 30
0.0
 11
99.2456
 21
20.0156
 31
0.0
  0
LINE
  5
23C
330
18
100
AcDbEntity
  8
DEFAULT
 62
     1
100
AcDbLine
 10
97.1797
 20
21.7836
 30
0.0
 11
99.2456
 21
20.0156
 31
0.0
  0
LINE
  5
23D
330
18
100
AcDbEntity
  8
DEFAULT
 62
     1
100
AcDbLine
 10
97.1797
 20
18.2476
 30
0.0
 11
99.2456
 21
20.0156
 31
0.0
  0
LINE
  5
23E
330
18
100
AcDbEntity
  8
DEFAULT
100
AcDbLine
 10
83.6279
 20
12.5438
 30
0.0
 11
95.6279
 21
12.5438
 31
0.0
  0
LINE
  5
23F
330
18
100
AcDbEntity
  8
DEFAULT
100
AcDbLine
 10
83.6279
 20
12.5438
 30
0.0
 11
83.6279
 21
13.9335
 31
0.0
  0
LINE
  5
240
330
18
100
AcDbEntity
  8
DEFAULT
100
AcDbLine
 10
84.6279
 20
12.5438
 30
0.0
 11
84.6279
 21
13.9335
 31
0.0
  0
LINE
  5
241
330
18
100
AcDbEntity
  8
DEFAULT
100
AcDbLine
 10
85.6279
 20
12.5438
 30
0.0
 11
85.6279
 21
13.9335
 31
0.0
  0
LINE
  5
242
330
18
100
AcDbEntity
  8
DEFAULT
100
AcDbLine
 10
86.6279
 20
12.5438
 30
0.0
 11
86.6279
 21
13.9335
 31
0.0
  0
LINE
  5
243
330
18
100
AcDbEntity
  8
DEFAULT
100
AcDbLine
 10
87.6279
 20
12.5438
 30
0.0
 11
87.6279
 21
13.9335
 31
0.0
  0
LINE
  5
244
330
18
100
AcDbEntity
  8
DEFAULT
100
AcDbLine
 10
88.6279
 20
12.5438
 30
0.0
 11
88.6279
 21
13.9335
 31
0.0
  0
LINE
  5
245
330
18
100
AcDbEntity
  8
DEFAULT
100
AcDbLine
 10
89.6279
 20
12.5438
 30
0.0
 11
89.6279
 21
13.9335
 31
0.0
  0
LINE
  5
246
330
18
100
AcDbEntity
  8
DEFAULT
100
AcDbLine
 10
90.6279
 20
12.5438
 30
0.0
 11
90.6279
 21
13.9335
 31
0.0
  0
LINE
  5
247
330
18
100
AcDbEntity
  8
DEFAULT
100
AcDbLine
 10
91.6279
 20
12.5438
 30
0.0
 11
91.6279
 21
13.9335
 31
0.0
  0
LINE
  5
248
330
18
100
AcDbEntity
  8
DEFAULT
100
AcDbLine
 10
92.6279
 20
12.5438
 30
0.0
 11
92.6279
 21
13.9335
 31
0.0
  0
LINE
  5
249
330
18
100
AcDbEntity
  8
DEFAULT
100
AcDbLine
 10
93.6279
 20
12.5438
 30
0.0
 11
93.6279
 21
13.9335
 31
0.0
  0
LINE
  5
24A
330
18
100
AcDbEntity
  8
DEFAULT
100
AcDbLine
 10
94.6279
 20
12.5438
 30
0.0
 11
94.6279
 21
13.9335
 31
0.0
  0
LINE
  5
24B
330
18
100
AcDbEntity
  8
DEFAULT
100
AcDbLine
 10
95.6279
 20
12.5438
 30
0.0
 11
95.6279
 21
13.9335
 31
0.0
  0
POINT
  5
24C
330
18
100
AcDbEntity
  8
DEFAULT
 62
     1
100
AcDbPoint
 10
89.6279
 20
12.5438
 30
0.0
  0
TEXT
  5
24D
330
18
100
AcDbEntity
  8
DEFAULT
100
AcDbText
 10
83.83029999999999
 20
10.3876
 30
0.0
 40
1.1368
  1
Scale: 12 inches
  7
ARIAL
100
AcDbText
  0
POINT
  5
24E
330
18
100
AcDbEntity
  8
DEFAULT
 62
     1
100
AcDbPoint
 10
47.1189
 20
22.8107
 30
0.0
  0
TEXT
  5
24F
330
18
100
AcDbEntity
  8
DEFAULT
100
AcDbText
 10
37.5083
 20
17.7998
 30
0.0
 40
1.1368
  1
South
 50
311.0
  7
ARIAL_BOLD
100
AcDbText
  0
TEXT
  5
250
330
18
100
AcDbEntity
  8
DEFAULT
100
AcDbText
 10
36.1987
 20
16.6614
 30
0.0
 40
1.1368
  1
Pole
 50
311.0
  7
ARIAL_BOLD
100
AcDbText
  0
TEXT
  5
251
330
18
100
AcDbEntity
  8
DEFAULT
100
AcDbText
 10
53.5516
 20
30.6207
 30
0.0
 40
1.1368
  1
North
 50
311.0
  7
ARIAL_BOLD
100
AcDbText
  0
TEXT
  5
252
330
18
100
AcDbEntity
  8
DEFAULT
100
AcDbText
 10
52.242
 20
29.4823
 30
0.0
 40
1.1368
  1
Pole
 50
311.0
  7
ARIAL_BOLD
100
AcDbText
  0
TEXT
  5
253
330
18
100
AcDbEntity
  8
DEFAULT
100
AcDbText
 10
37.6778
 20
33.855
 30
0.0
 40
1.1368
  1
Equator
 50
309.0
  7
ARIAL_BOLD
100
AcDbText
  0
TEXT
  5
254
330
18
100
AcDbEntity
  8
DEFAULT
100
AcDbText
 10
52.2576
 20
15.8839
 30
0.0
 40
1.1368
  1
Equator
 50
309.0
  7
ARIAL_BOLD
100
AcDbText
  0
TEXT
  5
255
330
18
100
AcDbEntity
  8
DEFAULT
100
AcDbText
 10
59.0604
 20
35.7233
 30
0.0
 40
1.1579
  1
NORTH
  7
ARIAL_BOLD
100
AcDbText
  0
TEXT
  5
256
330
18
100
AcDbEntity
  8
DEFAULT
100
AcDbText
 10
59.0604
 20
33.9559
 30
0.0
 40
1.1579
  1
CELESTIAL 
  7
ARIAL_BOLD
100
AcDbText
  0
TEXT
  5
257
330
18
100
AcDbEntity
  8
DEFAULT
100
AcDbText
 10
59.0604
 20
32.1885
 30
0.0
 40
1.1579
  1
POLE
  7
ARIAL_BOLD
100
AcDbText
  0
LINE
  5
258
330
18
100
AcDbEntity
  8
DEFAULT
 62
     1
100
AcDbLine
 10
57.1073
 20
30.9144
 30
0.0
 11
60.6741
 21
33.8062
 31
0.0
  0
LINE
  5
259
330
18
100
AcDbEntity
  8
DEFAULT
 62
     1
100
AcDbLine
 10
47.119
 20
25.8084
 30
0.0
 11
47.8793
 21
26.8185
 31
0.0
  0
LINE
  5
25A
330
18
100
AcDbEntity
  8
DEFAULT
 62
     1
100
AcDbLine
 10
46.3585
 20
26.8185
 30
0.0
 11
47.1188
 21
25.8084
 31
0.0
  0
LINE
  5
25B
330
18
100
AcDbEntity
  8
DEFAULT
 62
     1
100
AcDbLine
 10
47.1189
 20
25.8084
 30
0.0
 11
47.1189
 21
30.1957
 31
0.0
  0
LINE
  5
25C
330
18
100
AcDbEntity
  8
DEFAULT
 62
     1
100
AcDbLine
 10
49.4475
 20
24.6963
 30
0.0
 11
50.7106
 21
24.7412
 31
0.0
  0
LINE
  5
25D
330
18
100
AcDbEntity
  8
DEFAULT
 62
     1
100
AcDbLine
 10
49.4474
 20
24.6963
 30
0.0
 11
49.7539
 21
25.9229
 31
0.0
  0
LINE
  5
25E
330
18
100
AcDbEntity
  8
DEFAULT
 62
     1
100
AcDbLine
 10
44.4878
 20
19.6954
 30
0.0
 11
44.7929
 21
20.9221
 31
0.0
  0
LINE
  5
25F
330
18
100
AcDbEntity
  8
DEFAULT
 62
     1
100
AcDbLine
 10
43.5293
 20
20.8757
 30
0.0
 11
44.7928
 21
20.9221
 31
0.0
  0
LINE
  5
260
330
18
100
AcDbEntity
  8
DEFAULT
 62
     1
100
AcDbLine
 10
42.4679
 20
28.5469
 30
0.0
 11
44.791
 21
25.6818
 31
0.0
  0
LINE
  5
261
330
18
100
AcDbEntity
  8
DEFAULT
 62
     1
100
AcDbLine
 10
44.791
 20
25.6818
 30
0.0
 11
51.7701
 21
17.0743
 31
0.0
  0
LINE
  5
262
330
18
100
AcDbEntity
  8
DEFAULT
 62
     5
100
AcDbLine
 10
44.7928
 20
20.9221
 30
0.0
 11
49.4475
 21
24.6962
 31
0.0
  0
LINE
  5
263
330
18
100
AcDbEntity
  8
DEFAULT
 62
     1
100
AcDbLine
 10
49.445
 20
24.6962
 30
0.0
 11
52.8556
 21
27.4614
 31
0.0
  0
LINE
  5
264
330
18
100
AcDbEntity
  8
DEFAULT
 62
     1
100
AcDbLine
 10
41.3825
 20
18.1597
 30
0.0
 11
44.7917
 21
20.9235
 31
0.0
  0
TEXT
  5
265
330
18
100
AcDbEntity
  8
DEFAULT
100
AcDbText
 10
43.5063
 20
32.0742
 30
0.0
 40
1.1368
  1
Colorado
  7
ARIAL_BOLD
100
AcDbText
  0
TEXT
  5
266
330
18
100
AcDbEntity
  8
DEFAULT
100
AcDbText
 10
43.5063
 20
30.3389
 30
0.0
 40
1.1368
  1
Springs
  7
ARIAL_BOLD
100
AcDbText
  0
ARC
  5
267
330
18
100
AcDbEntity
  8
DEFAULT
100
AcDbCircle
 10
47.1227
 20
22.8085
 30
0.0
 40
3.0
100
AcDbArc
 50
248.9604
 51
188.9537
  0
LINE
  5
268
330
18
100
AcDbEntity
  8
DEFAULT
100
AcDbLine
 10
44.1592
 20
22.3415
 30
0.0
 11
46.0456
 21
20.0085
 31
0.0
  0
LINE
  5
269
330
18
100
AcDbEntity
  8
DEFAULT
 62
     1
100
AcDbLine
 10
58.0653
 20
33.7035
 30
0.0
 11
60.6741
 21
33.8062
 31
0.0
  0
LINE
  5
26A
330
18
100
AcDbEntity
  8
DEFAULT
 62
     1
100
AcDbLine
 10
60.0343
 20
31.2751
 30
0.0
 11
60.6741
 21
33.8062
 31
0.0
  0
SOLID
  5
26B
330
18
100
AcDbEntity
  8
DEFAULT
 62
     3
100
AcDbTrace
 10
45.9065
 20
20.1316
 30
0.0
 11
45.9518
 21
20.1726
 31
0.0
 12
46.0455
 22
20.0084
 32
0.0
 13
46.0455
 23
20.0084
 33
0.0
  0
SOLID
  5
26C
330
18
100
AcDbEntity
  8
DEFAULT
 62
     3
100
AcDbTrace
 10
44.298
 20
22.2181
 30
0.0
 11
44.2527
 21
22.1771
 31
0.0
 12
44.1591
 22
22.3414
 32
0.0
 13
44.1591
 23
22.3414
 33
0.0
  0
TEXT
  5
26D
330
18
100
AcDbEntity
  8
DEFAULT
 62
     3
100
AcDbText
 10
44.6805
 20
20.5302
 30
0.0
 40
1.2632
  1
3
  7
ARIAL_BOLD
100
AcDbText
  0
LINE
  5
26E
330
18
100
AcDbEntity
  8
DEFAULT
 62
     3
100
AcDbLine
 10
45.5638
 20
20.6051
 30
0.0
 11
46.0455
 21
20.0084
 31
0.0
  0
LINE
  5
26F
330
18
100
AcDbEntity
  8
DEFAULT
 62
     3
100
AcDbLine
 10
44.1591
 20
22.3414
 30
0.0
 11
44.6412
 21
21.7445
 31
0.0
  0
SOLID
  5
270
330
18
100
AcDbEntity
  8
DEFAULT
 62
     3
100
AcDbTrace
 10
145.3417
 20
30.3195
 30
0.0
 11
145.2834
 21
30.3195
 31
0.0
 12
145.3126
 22
30.5045
 32
0.0
 13
145.3126
 23
30.5045
 33
0.0
  0
SOLID
  5
271
330
18
100
AcDbEntity
  8
DEFAULT
 62
     3
100
AcDbTrace
 10
145.2834
 20
-55.1267
 30
0.0
 11
145.3417
 21
-55.1267
 31
0.0
 12
145.3126
 22
-55.3117
 32
0.0
 13
145.3126
 23
-55.3117
 33
0.0
  0
LINE
  5
272
330
18
100
AcDbEntity
  8
DEFAULT
 62
     3
100
AcDbLine
 10
145.3126
 20
-14.8338
 30
0.0
 11
145.3126
 21
30.5045
 31
0.0
  0
LINE
  5
273
330
18
100
AcDbEntity
  8
DEFAULT
 62
     3
100
AcDbLine
 10
145.3126
 20
-55.3117
 30
0.0
 11
145.3126
 21
-18.5588
 31
0.0
  0
TEXT
  5
274
330
18
100
AcDbEntity
  8
DEFAULT
 62
     3
100
AcDbText
 10
143.1586
 20
-17.3409
 30
0.0
 40
1.2632
  1
85 13/16
  7
ARIAL_BOLD
100
AcDbText
  0
LINE
  5
275
330
18
100
AcDbEntity
  8
DEFAULT
 62
     3
100
AcDbLine
 10
145.1876
 20
30.5045
 30
0.0
 11
151.0149
 21
30.5045
 31
0.0
  0
LINE
  5
276
330
18
100
AcDbEntity
  8
DEFAULT
 62
     3
100
AcDbLine
 10
145.1876
 20
-55.3117
 30
0.0
 11
151.0149
 21
-55.3117
 31
0.0
  0
SOLID
  5
277
330
18
100
AcDbEntity
  8
DEFAULT
 62
     3
100
AcDbTrace
 10
151.2623
 20
-58.3898
 30
0.0
 11
151.2623
 21
-58.4549
 31
0.0
 12
151.0774
 22
-58.4224
 32
0.0
 13
151.0774
 23
-58.4224
 33
0.0
  0
SOLID
  5
278
330
18
100
AcDbEntity
  8
DEFAULT
 62
     3
100
AcDbTrace
 10
178.07
 20
-58.4549
 30
0.0
 11
178.07
 21
-58.3898
 31
0.0
 12
178.255
 22
-58.4224
 32
0.0
 13
178.255
 23
-58.4224
 33
0.0
  0
LINE
  5
279
330
18
100
AcDbEntity
  8
DEFAULT
 62
     3
100
AcDbLine
 10
151.0774
 20
-58.4224
 30
0.0
 11
162.8561
 21
-58.4224
 31
0.0
  0
LINE
  5
27A
330
18
100
AcDbEntity
  8
DEFAULT
 62
     3
100
AcDbLine
 10
167.3165
 20
-58.4224
 30
0.0
 11
178.255
 21
-58.4224
 31
0.0
  0
TEXT
  5
27B
330
18
100
AcDbEntity
  8
DEFAULT
 62
     3
100
AcDbText
 10
162.9187
 20
-59.067
 30
0.0
 40
1.2632
  1
27 3/16
  7
ARIAL_BOLD
100
AcDbText
  0
LINE
  5
27C
330
18
100
AcDbEntity
  8
DEFAULT
 62
     3
100
AcDbLine
 10
151.0774
 20
-58.5474
 30
0.0
 11
151.0774
 21
-55.3742
 31
0.0
  0
LINE
  5
27D
330
18
100
AcDbEntity
  8
DEFAULT
 62
     3
100
AcDbLine
 10
178.255
 20
-58.5474
 30
0.0
 11
178.255
 21
-55.3742
 31
0.0
  0
LINE
  5
27E
330
18
100
AcDbEntity
  8
DEFAULT
 62
     3
100
AcDbLine
 10
-6.215
 20
28.078
 30
0.0
 11
-4.3013
 21
25.7178
 31
0.0
  0
LINE
  5
27F
330
18
100
AcDbEntity
  8
DEFAULT
 62
     3
100
AcDbLine
 10
-2.9788
 20
30.4379
 30
0.0
 11
-1.1943
 21
28.2369
 31
0.0
  0
SOLID
  5
280
330
18
100
AcDbEntity
  8
DEFAULT
 62
     3
100
AcDbTrace
 10
41.2666
 20
25.5636
 30
0.0
 11
41.3033
 21
25.5129
 31
0.0
 12
41.1413
 22
25.422
 32
0.0
 13
41.1413
 23
25.422
 33
0.0
  0
SOLID
  5
281
330
18
100
AcDbEntity
  8
DEFAULT
 62
     3
100
AcDbTrace
 10
45.6765
 20
29.0591
 30
0.0
 11
45.6398
 21
29.1098
 31
0.0
 12
45.8019
 22
29.2008
 32
0.0
 13
45.8019
 23
29.2008
 33
0.0
  0
TEXT
  5
282
330
18
100
AcDbEntity
  8
DEFAULT
 62
     3
100
AcDbText
 10
43.0093
 20
26.6361
 30
0.0
 40
1.2632
  1
6
  7
ARIAL_BOLD
100
AcDbText
  0
LINE
  5
283
330
18
100
AcDbEntity
  8
DEFAULT
 62
     3
100
AcDbLine
 10
41.1413
 20
25.422
 30
0.0
 11
42.9608
 21
26.8978
 31
0.0
  0
LINE
  5
284
330
18
100
AcDbEntity
  8
DEFAULT
 62
     3
100
AcDbLine
 10
43.9066
 20
27.6636
 30
0.0
 11
45.8019
 21
29.2008
 31
0.0
  0
LINE
  5
285
330
18
100
AcDbEntity
  8
DEFAULT
 62
     3
100
AcDbLine
 10
-3.6123
 20
-11.9917
 30
0.0
 11
-1.4613
 21
-14.6447
 31
0.0
  0
POINT
  5
286
330
18
100
AcDbEntity
  8
DEFAULT
 62
     1
100
AcDbPoint
 10
-3.6123
 20
-11.9917
 30
0.0
  0
POINT
  5
287
330
18
100
AcDbEntity
  8
DEFAULT
 62
     1
100
AcDbPoint
 10
14.4195
 20
2.6271
 30
0.0
  0
LINE
  5
288
330
18
100
AcDbEntity
  8
DEFAULT
 62
     3
100
AcDbLine
 10
38.9249
 20
28.1531
 30
0.0
 11
43.8467
 21
22.0887
 31
0.0
  0
SOLID
  5
289
330
18
100
AcDbEntity
  8
DEFAULT
 62
     3
100
AcDbTrace
 10
14.5448
 20
2.7686
 30
0.0
 11
14.5815
 21
2.7179
 31
0.0
 12
14.4195
 22
2.627
 32
0.0
 13
14.4195
 23
2.627
 33
0.0
  0
SOLID
  5
28A
330
18
100
AcDbEntity
  8
DEFAULT
 62
     3
100
AcDbTrace
 10
17.4013
 20
5.0043
 30
0.0
 11
17.3646
 21
5.055
 31
0.0
 12
17.5267
 22
5.146
 32
0.0
 13
17.5267
 23
5.146
 33
0.0
  0
TEXT
  5
28B
330
18
100
AcDbEntity
  8
DEFAULT
 62
     3
100
AcDbText
 10
16.0194
 20
3.0947
 30
0.0
 40
1.2632
  1
4
 50
39.0
  7
ARIAL_BOLD
100
AcDbText
  0
LINE
  5
28C
330
18
100
AcDbEntity
  8
DEFAULT
 62
     3
100
AcDbLine
 10
14.4195
 20
2.627
 30
0.0
 11
15.5652
 21
3.5564
 31
0.0
  0
LINE
  5
28D
330
18
100
AcDbEntity
  8
DEFAULT
 62
     3
100
AcDbLine
 10
16.3724
 20
4.2098
 30
0.0
 11
17.5267
 21
5.146
 31
0.0
  0
POINT
  5
28E
330
18
100
AcDbEntity
  8
DEFAULT
 62
     1
100
AcDbPoint
 10
41.6951
 20
24.74
 30
0.0
  0
SOLID
  5
28F
330
18
100
AcDbEntity
  8
DEFAULT
 62
     3
100
AcDbTrace
 10
-3.4869
 20
-11.8499
 30
0.0
 11
-3.4502
 21
-11.9006
 31
0.0
 12
-3.6123
 22
-11.9916
 32
0.0
 13
-3.6123
 23
-11.9916
 33
0.0
  0
SOLID
  5
290
330
18
100
AcDbEntity
  8
DEFAULT
 62
     3
100
AcDbTrace
 10
14.294
 20
2.4854
 30
0.0
 11
14.2573
 21
2.5361
 31
0.0
 12
14.4194
 22
2.6271
 32
0.0
 13
14.4194
 23
2.6271
 33
0.0
  0
TEXT
  5
291
330
18
100
AcDbEntity
  8
DEFAULT
 62
     3
100
AcDbText
 10
4.4889
 20
-6.1691
 30
0.0
 40
1.1368
  1
23 3/16
 50
39.0
  7
ARIAL_BOLD
100
AcDbText
  0
LINE
  5
292
330
18
100
AcDbEntity
  8
DEFAULT
 62
     3
100
AcDbLine
 10
-3.6123
 20
-11.9916
 30
0.0
 11
4.0754
 21
-5.7574
 31
0.0
  0
LINE
  5
293
330
18
100
AcDbEntity
  8
DEFAULT
 62
     3
100
AcDbLine
 10
7.2044
 20
-3.224
 30
0.0
 11
14.4194
 21
2.6271
 31
0.0
  0
SOLID
  5
294
330
18
100
AcDbEntity
  8
DEFAULT
 62
     3
100
AcDbTrace
 10
17.6519
 20
5.2877
 30
0.0
 11
17.6886
 21
5.237
 31
0.0
 12
17.5266
 22
5.1461
 32
0.0
 13
17.5266
 23
5.1461
 33
0.0
  0
SOLID
  5
295
330
18
100
AcDbEntity
  8
DEFAULT
 62
     3
100
AcDbTrace
 10
41.5696
 20
24.5983
 30
0.0
 11
41.5329
 21
24.649
 31
0.0
 12
41.695
 22
24.74
 32
0.0
 13
41.695
 23
24.74
 33
0.0
  0
TEXT
  5
296
330
18
100
AcDbEntity
  8
DEFAULT
 62
     3
100
AcDbText
 10
28.862
 20
13.5903
 30
0.0
 40
1.1368
  1
31 1/8
 50
39.0
  7
ARIAL_BOLD
100
AcDbText
  0
LINE
  5
297
330
18
100
AcDbEntity
  8
DEFAULT
 62
     3
100
AcDbLine
 10
17.5266
 20
5.1461
 30
0.0
 11
28.4485
 21
14.002
 31
0.0
  0
LINE
  5
298
330
18
100
AcDbEntity
  8
DEFAULT
 62
     3
100
AcDbLine
 10
30.8599
 20
15.9544
 30
0.0
 11
41.695
 21
24.74
 31
0.0
  0
LINE
  5
299
330
18
100
AcDbEntity
  8
DEFAULT
 62
     3
100
AcDbLine
 10
45.802
 20
29.2008
 30
0.0
 11
49.445
 21
24.6962
 31
0.0
  0
TEXT
  5
29A
330
18
100
AcDbEntity
  8
DEFAULT
100
AcDbText
 10
52.9074
 20
22.2316
 30
0.0
 40
2.1053
  1
world globe
  7
ARIAL_BOLD
100
AcDbText
  0
POINT
  5
29B
330
18
100
AcDbEntity
  8
DEFAULT
 62
     1
100
AcDbPoint
 10
-67.4436
 20
2.6757
 30
0.0
  0
POINT
  5
29C
330
18
100
AcDbEntity
  8
DEFAULT
 62
     1
100
AcDbPoint
 10
-67.4436
 20
2.6757
 30
0.0
  0
CIRCLE
  5
29D
330
18
100
AcDbEntity
  8
DEFAULT
100
AcDbCircle
 10
-67.4436
 20
2.6757
 30
0.0
 40
1.4999
  0
LINE
  5
29E
330
18
100
AcDbEntity
  8
DEFAULT
100
AcDbLine
 10
-67.44329999999999
 20
17.9962
 30
0.0
 11
-54.1752
 21
-4.9846
 31
0.0
  0
LINE
  5
29F
330
18
100
AcDbEntity
  8
DEFAULT
100
AcDbLine
 10
-80.71129999999999
 20
-4.9846
 30
0.0
 11
-67.44329999999999
 21
17.9962
 31
0.0
  0
LINE
  5
2A0
330
18
100
AcDbEntity
  8
DEFAULT
100
AcDbLine
 10
-80.71129999999999
 20
-4.9846
 30
0.0
 11
-54.1752
 21
-4.9846
 31
0.0
  0
LINE
  5
2A1
330
18
100
AcDbEntity
  8
DEFAULT
100
AcDbLine
 10
-67.4434
 20
24.3165
 30
0.0
 11
-48.7018
 21
-8.1447
 31
0.0
  0
LINE
  5
2A2
330
18
100
AcDbEntity
  8
DEFAULT
100
AcDbLine
 10
-86.1849
 20
-8.1447
 30
0.0
 11
-67.4434
 21
24.3165
 31
0.0
  0
LINE
  5
2A3
330
18
100
AcDbEntity
  8
DEFAULT
100
AcDbLine
 10
-86.1849
 20
-8.1447
 30
0.0
 11
-48.7018
 21
-8.1447
 31
0.0
  0
LINE
  5
2A4
330
18
100
AcDbEntity
  8
DEFAULT
100
AcDbLine
 10
-89.64919999999999
 20
-10.1447
 30
0.0
 11
-45.2378
 21
-10.1447
 31
0.0
  0
LINE
  5
2A5
330
18
100
AcDbEntity
  8
DEFAULT
100
AcDbLine
 10
-67.4435
 20
28.3166
 30
0.0
 11
-45.2378
 21
-10.1447
 31
0.0
  0
LINE
  5
2A6
330
18
100
AcDbEntity
  8
DEFAULT
100
AcDbLine
 10
-89.64919999999999
 20
-10.1447
 30
0.0
 11
-67.4435
 21
28.3166
 31
0.0
  0
CIRCLE
  5
2A7
330
18
100
AcDbEntity
  8
DEFAULT
100
AcDbCircle
 10
-80.0376
 20
7.5777
 30
0.0
 40
0.2125
  0
CIRCLE
  5
2A8
330
18
100
AcDbEntity
  8
DEFAULT
100
AcDbCircle
 10
-82.0172
 20
4.149
 30
0.0
 40
0.2125
  0
CIRCLE
  5
2A9
330
18
100
AcDbEntity
  8
DEFAULT
100
AcDbCircle
 10
-84.6523
 20
-0.4151
 30
0.0
 40
0.2125
  0
CIRCLE
  5
2AA
330
18
100
AcDbEntity
  8
DEFAULT
100
AcDbCircle
 10
-89.1233
 20
-8.1592
 30
0.0
 40
0.2125
  0
CIRCLE
  5
2AB
330
18
100
AcDbEntity
  8
DEFAULT
100
AcDbCircle
 10
-82.87090000000001
 20
-10.6822
 30
0.0
 40
0.2125
  0
CIRCLE
  5
2AC
330
18
100
AcDbEntity
  8
DEFAULT
100
AcDbCircle
 10
-76.8541
 20
-10.6822
 30
0.0
 40
0.2125
  0
CIRCLE
  5
2AD
330
18
100
AcDbEntity
  8
DEFAULT
100
AcDbCircle
 10
-72.5493
 20
-10.6822
 30
0.0
 40
0.2125
  0
CIRCLE
  5
2AE
330
18
100
AcDbEntity
  8
DEFAULT
100
AcDbCircle
 10
-68.91970000000001
 20
-10.6822
 30
0.0
 40
0.2125
  0
CIRCLE
  5
2AF
330
18
100
AcDbEntity
  8
DEFAULT
100
AcDbCircle
 10
-65.3929
 20
-10.6822
 30
0.0
 40
0.2125
  0
CIRCLE
  5
2B0
330
18
100
AcDbEntity
  8
DEFAULT
100
AcDbCircle
 10
-61.4343
 20
-10.6822
 30
0.0
 40
0.2125
  0
CIRCLE
  5
2B1
330
18
100
AcDbEntity
  8
DEFAULT
100
AcDbCircle
 10
-56.1648
 20
-10.6822
 30
0.0
 40
0.2125
  0
CIRCLE
  5
2B2
330
18
100
AcDbEntity
  8
DEFAULT
100
AcDbCircle
 10
-47.225
 20
-10.6822
 30
0.0
 40
0.2125
  0
CIRCLE
  5
2B3
330
18
100
AcDbEntity
  8
DEFAULT
100
AcDbCircle
 10
-48.1592
 20
-4.0093
 30
0.0
 40
0.2125
  0
CIRCLE
  5
2B4
330
18
100
AcDbEntity
  8
DEFAULT
100
AcDbCircle
 10
-51.1683
 20
1.2025
 30
0.0
 40
0.2125
  0
CIRCLE
  5
2B5
330
18
100
AcDbEntity
  8
DEFAULT
100
AcDbCircle
 10
-53.3208
 20
4.9308
 30
0.0
 40
0.2125
  0
LINE
  5
2B6
330
18
100
AcDbEntity
  8
DEFAULT
100
AcDbLine
 10
-47.1101
 20
-6.9017
 30
0.0
 11
-45.9907
 21
-7.34
 31
0.0
  0
LINE
  5
2B7
330
18
100
AcDbEntity
  8
DEFAULT
100
AcDbLine
 10
-86.44929999999999
 20
-3.1025
 30
0.0
 11
-85.3327
 21
-2.6685
 31
0.0
  0
LINE
  5
2B8
330
18
100
AcDbEntity
  8
DEFAULT
100
AcDbLine
 10
-80.63549999999999
 20
-10.1446
 30
0.0
 11
-78.8879
 21
-8.144600000000001
 31
0.0
  0
LINE
  5
2B9
330
18
100
AcDbEntity
  8
DEFAULT
100
AcDbLine
 10
-79.1306
 20
-10.1446
 30
0.0
 11
-75.18600000000001
 21
-4.9845
 31
0.0
  0
LINE
  5
2BA
330
18
100
AcDbEntity
  8
DEFAULT
100
AcDbLine
 10
-77.7761
 20
-10.1446
 30
0.0
 11
-76.4448
 21
-8.144600000000001
 31
0.0
  0
LINE
  5
2BB
330
18
100
AcDbEntity
  8
DEFAULT
100
AcDbLine
 10
-75.4061
 20
-10.1446
 30
0.0
 11
-74.4242
 21
-8.144600000000001
 31
0.0
  0
LINE
  5
2BC
330
18
100
AcDbEntity
  8
DEFAULT
100
AcDbLine
 10
-74.34780000000001
 20
-10.1446
 30
0.0
 11
-72.2213
 21
-4.9845
 31
0.0
  0
LINE
  5
2BD
330
18
100
AcDbEntity
  8
DEFAULT
100
AcDbLine
 10
-73.3507
 20
-10.1446
 30
0.0
 11
-72.6758
 21
-8.144600000000001
 31
0.0
  0
LINE
  5
2BE
330
18
100
AcDbEntity
  8
DEFAULT
100
AcDbLine
 10
-67.645
 20
27.9676
 30
0.0
 11
-67.39279999999999
 21
24.229
 31
0.0
  0
LINE
  5
2BF
330
18
100
AcDbEntity
  8
DEFAULT
100
AcDbLine
 10
-68.9954
 20
25.6287
 30
0.0
 11
-67.8759
 21
17.2468
 31
0.0
  0
LINE
  5
2C0
330
18
100
AcDbEntity
  8
DEFAULT
100
AcDbLine
 10
-70.1292
 20
23.6648
 30
0.0
 11
-69.53310000000001
 21
20.697
 31
0.0
  0
LINE
  5
2C1
330
18
100
AcDbEntity
  8
DEFAULT
100
AcDbLine
 10
-71.101
 20
21.9816
 30
0.0
 11
-67.10080000000001
 21
7.1626
 31
0.0
  0
LINE
  5
2C2
330
18
100
AcDbEntity
  8
DEFAULT
100
AcDbLine
 10
-71.9499
 20
20.5113
 30
0.0
 11
-71.09139999999999
 21
17.9979
 31
0.0
  0
LINE
  5
2C3
330
18
100
AcDbEntity
  8
DEFAULT
100
AcDbLine
 10
-72.7024
 20
19.2078
 30
0.0
 11
-70.20569999999999
 21
13.2116
 31
0.0
  0
LINE
  5
2C4
330
18
100
AcDbEntity
  8
DEFAULT
100
AcDbLine
 10
-73.3796
 20
18.035
 30
0.0
 11
-72.313
 21
15.8822
 31
0.0
  0
LINE
  5
2C5
330
18
100
AcDbEntity
  8
DEFAULT
100
AcDbLine
 10
-73.996
 20
16.9674
 30
0.0
 11
-68.27370000000001
 21
7.0984
 31
0.0
  0
LINE
  5
2C6
330
18
100
AcDbEntity
  8
DEFAULT
100
AcDbLine
 10
-74.56440000000001
 20
15.9828
 30
0.0
 11
-73.3231
 21
14.1326
 31
0.0
  0
LINE
  5
2C7
330
18
100
AcDbEntity
  8
DEFAULT
100
AcDbLine
 10
-75.09390000000001
 20
15.0657
 30
0.0
 11
-71.688
 21
10.6441
 31
0.0
  0
LINE
  5
2C8
330
18
100
AcDbEntity
  8
DEFAULT
100
AcDbLine
 10
-65.9867
 20
25.7934
 30
0.0
 11
-65.95140000000001
 21
6.9211
 31
0.0
  0
LINE
  5
2C9
330
18
100
AcDbEntity
  8
DEFAULT
100
AcDbLine
 10
-64.8494
 20
19.8238
 30
0.0
 11
-64.6198
 21
23.4261
 31
0.0
  0
LINE
  5
2CA
330
18
100
AcDbEntity
  8
DEFAULT
100
AcDbLine
 10
-64.5859
 20
13.0473
 30
0.0
 11
-63.492
 21
21.4726
 31
0.0
  0
LINE
  5
2CB
330
18
100
AcDbEntity
  8
DEFAULT
100
AcDbLine
 10
-63.1256
 20
16.8381
 30
0.0
 11
-62.538
 21
19.8203
 31
0.0
  0
LINE
  5
2CC
330
18
100
AcDbEntity
  8
DEFAULT
100
AcDbLine
 10
-64.9032
 20
6.3901
 30
0.0
 11
-61.7113
 21
18.3884
 31
0.0
  0
LINE
  5
2CD
330
18
100
AcDbEntity
  8
DEFAULT
100
AcDbLine
 10
-61.8364
 20
14.6052
 30
0.0
 11
-60.9846
 21
17.1298
 31
0.0
  0
LINE
  5
2CE
330
18
100
AcDbEntity
  8
DEFAULT
100
AcDbLine
 10
-62.8132
 20
9.977
 30
0.0
 11
-60.3317
 21
15.9989
 31
0.0
  0
LINE
  5
2CF
330
18
100
AcDbEntity
  8
DEFAULT
100
AcDbLine
 10
-60.7994
 20
12.8091
 30
0.0
 11
-59.7382
 21
14.971
 31
0.0
  0
LINE
  5
2D0
330
18
100
AcDbEntity
  8
DEFAULT
100
AcDbLine
 10
-75.59229999999999
 20
14.2025
 30
0.0
 11
-74.19759999999999
 21
12.6179
 31
0.0
  0
LINE
  5
2D1
330
18
100
AcDbEntity
  8
DEFAULT
100
AcDbLine
 10
-76.0651
 20
13.3835
 30
0.0
 11
-69.3901
 21
6.7329
 31
0.0
  0
LINE
  5
2D2
330
18
100
AcDbEntity
  8
DEFAULT
100
AcDbLine
 10
-76.5193
 20
12.5969
 30
0.0
 11
-74.9842
 21
11.2555
 31
0.0
  0
LINE
  5
2D3
330
18
100
AcDbEntity
  8
DEFAULT
100
AcDbLine
 10
-76.95820000000001
 20
11.8367
 30
0.0
 11
-72.824
 21
8.676500000000001
 31
0.0
  0
LINE
  5
2D4
330
18
100
AcDbEntity
  8
DEFAULT
100
AcDbLine
 10
-77.38679999999999
 20
11.0943
 30
0.0
 11
-75.7184
 21
9.983800000000001
 31
0.0
  0
LINE
  5
2D5
330
18
100
AcDbEntity
  8
DEFAULT
100
AcDbLine
 10
-78.2269
 20
9.639099999999999
 30
0.0
 11
-76.42740000000001
 21
8.755599999999999
 31
0.0
  0
LINE
  5
2D6
330
18
100
AcDbEntity
  8
DEFAULT
100
AcDbLine
 10
-78.64579999999999
 20
8.9137
 30
0.0
 11
-73.8323
 21
6.9301
 31
0.0
  0
LINE
  5
2D7
330
18
100
AcDbEntity
  8
DEFAULT
100
AcDbLine
 10
-79.06910000000001
 20
8.1805
 30
0.0
 11
-77.1361
 21
7.5282
 31
0.0
  0
LINE
  5
2D8
330
18
100
AcDbEntity
  8
DEFAULT
100
AcDbLine
 10
-79.9434
 20
6.6662
 30
0.0
 11
-77.8698
 21
6.2575
 31
0.0
  0
LINE
  5
2D9
330
18
100
AcDbEntity
  8
DEFAULT
100
AcDbLine
 10
-80.4033
 20
5.8696
 30
0.0
 11
-74.86
 21
5.1501
 31
0.0
  0
LINE
  5
2DA
330
18
100
AcDbEntity
  8
DEFAULT
100
AcDbLine
 10
-80.8857
 20
5.034
 30
0.0
 11
-78.65810000000001
 21
4.8921
 31
0.0
  0
LINE
  5
2DB
330
18
100
AcDbEntity
  8
DEFAULT
100
AcDbLine
 10
-64.0277
 20
5.6052
 30
0.0
 11
-59.1881
 21
14.0182
 31
0.0
  0
LINE
  5
2DC
330
18
100
AcDbEntity
  8
DEFAULT
100
AcDbLine
 10
-59.9163
 20
11.2795
 30
0.0
 11
-58.6798
 21
13.1378
 31
0.0
  0
LINE
  5
2DD
330
18
100
AcDbEntity
  8
DEFAULT
100
AcDbLine
 10
-61.5921
 20
7.862
 30
0.0
 11
-58.1975
 21
12.3024
 31
0.0
  0
LINE
  5
2DE
330
18
100
AcDbEntity
  8
DEFAULT
100
AcDbLine
 10
-59.1279
 20
9.914
 30
0.0
 11
-57.7374
 21
11.5056
 31
0.0
  0
LINE
  5
2DF
330
18
100
AcDbEntity
  8
DEFAULT
100
AcDbLine
 10
-63.3859
 20
4.6214
 30
0.0
 11
-57.2922
 21
10.7343
 31
0.0
  0
LINE
  5
2E0
330
18
100
AcDbEntity
  8
DEFAULT
100
AcDbLine
 10
-58.3945
 20
8.643700000000001
 30
0.0
 11
-56.8634
 21
9.9917
 31
0.0
  0
LINE
  5
2E1
330
18
100
AcDbEntity
  8
DEFAULT
100
AcDbLine
 10
-60.5643
 20
6.0818
 30
0.0
 11
-56.4401
 21
9.2584
 31
0.0
  0
LINE
  5
2E2
330
18
100
AcDbEntity
  8
DEFAULT
100
AcDbLine
 10
-57.6856
 20
7.4158
 30
0.0
 11
-56.0211
 21
8.5327
 31
0.0
  0
LINE
  5
2E3
330
18
100
AcDbEntity
  8
DEFAULT
100
AcDbLine
 10
-56.9765
 20
6.1878
 30
0.0
 11
-55.181
 21
7.0776
 31
0.0
  0
LINE
  5
2E4
330
18
100
AcDbEntity
  8
DEFAULT
100
AcDbLine
 10
-59.5562
 20
4.3357
 30
0.0
 11
-54.7527
 21
6.3357
 31
0.0
  0
LINE
  5
2E5
330
18
100
AcDbEntity
  8
DEFAULT
100
AcDbLine
 10
-56.2427
 20
4.9166
 30
0.0
 11
-54.3137
 21
5.5754
 31
0.0
  0
LINE
  5
2E6
330
18
100
AcDbEntity
  8
DEFAULT
100
AcDbLine
 10
-55.4557
 20
3.5537
 30
0.0
 11
-53.3865
 21
3.9695
 31
0.0
  0
LINE
  5
2E7
330
18
100
AcDbEntity
  8
DEFAULT
100
AcDbLine
 10
-58.4199
 20
2.3677
 30
0.0
 11
-52.8882
 21
3.1064
 31
0.0
  0
LINE
  5
2E8
330
18
100
AcDbEntity
  8
DEFAULT
100
AcDbLine
 10
-54.5816
 20
2.0396
 30
0.0
 11
-52.3588
 21
2.1895
 31
0.0
  0
LINE
  5
2E9
330
18
100
AcDbEntity
  8
DEFAULT
100
AcDbLine
 10
-53.5714
 20
0.2897
 30
0.0
 11
-51.174
 21
0.1373
 31
0.0
  0
LINE
  5
2EA
330
18
100
AcDbEntity
  8
DEFAULT
100
AcDbLine
 10
-56.9376
 20
-0.1998
 30
0.0
 11
-50.4968
 21
-1.0358
 31
0.0
  0
LINE
  5
2EB
330
18
100
AcDbEntity
  8
DEFAULT
100
AcDbLine
 10
-52.3499
 20
-1.8259
 30
0.0
 11
-49.7444
 21
-2.339
 31
0.0
  0
LINE
  5
2EC
330
18
100
AcDbEntity
  8
DEFAULT
100
AcDbLine
 10
-50.7918
 20
-4.5246
 30
0.0
 11
-47.9239
 21
-5.4922
 31
0.0
  0
LINE
  5
2ED
330
18
100
AcDbEntity
  8
DEFAULT
100
AcDbLine
 10
-54.6078
 20
-4.2351
 30
0.0
 11
-46.7896
 21
-7.4568
 31
0.0
  0
LINE
  5
2EE
330
18
100
AcDbEntity
  8
DEFAULT
100
AcDbLine
 10
-48.8033
 20
-8.1447
 30
0.0
 11
-45.4392
 21
-9.7958
 31
0.0
  0
LINE
  5
2EF
330
18
100
AcDbEntity
  8
DEFAULT
100
AcDbLine
 10
-59.8915
 20
-4.9846
 30
0.0
 11
-53.1412
 21
-10.1447
 31
0.0
  0
LINE
  5
2F0
330
18
100
AcDbEntity
  8
DEFAULT
100
AcDbLine
 10
-57.3385
 20
-8.1447
 30
0.0
 11
-55.0491
 21
-10.1447
 31
0.0
  0
LINE
  5
2F1
330
18
100
AcDbEntity
  8
DEFAULT
100
AcDbLine
 10
-59.9161
 20
-8.1447
 30
0.0
 11
-58.1554
 21
-10.1447
 31
0.0
  0
LINE
  5
2F2
330
18
100
AcDbEntity
  8
DEFAULT
100
AcDbLine
 10
-63.436
 20
-4.9846
 30
0.0
 11
-59.4614
 21
-10.1447
 31
0.0
  0
LINE
  5
2F3
330
18
100
AcDbEntity
  8
DEFAULT
100
AcDbLine
 10
-61.9903
 20
-8.1447
 30
0.0
 11
-60.6484
 21
-10.1447
 31
0.0
  0
LINE
  5
2F4
330
18
100
AcDbEntity
  8
DEFAULT
100
AcDbLine
 10
-63.7553
 20
-8.1447
 30
0.0
 11
-62.7644
 21
-10.1447
 31
0.0
  0
LINE
  5
2F5
330
18
100
AcDbEntity
  8
DEFAULT
100
AcDbLine
 10
-65.878
 20
-4.9846
 30
0.0
 11
-63.7296
 21
-10.1447
 31
0.0
  0
LINE
  5
2F6
330
18
100
AcDbEntity
  8
DEFAULT
100
AcDbLine
 10
-65.3322
 20
-8.1447
 30
0.0
 11
-64.6491
 21
-10.1447
 31
0.0
  0
LINE
  5
2F7
330
18
100
AcDbEntity
  8
DEFAULT
100
AcDbLine
 10
-66.7991
 20
-8.1447
 30
0.0
 11
-66.39740000000001
 21
-10.1447
 31
0.0
  0
LINE
  5
2F8
330
18
100
AcDbEntity
  8
DEFAULT
100
AcDbLine
 10
-67.93300000000001
 20
-4.9846
 30
0.0
 11
-67.2441
 21
-10.1447
 31
0.0
  0
LINE
  5
2F9
330
18
100
AcDbEntity
  8
DEFAULT
100
AcDbLine
 10
-68.2166
 20
-8.1447
 30
0.0
 11
-68.0818
 21
-10.1447
 31
0.0
  0
LINE
  5
2FA
330
18
100
AcDbEntity
  8
DEFAULT
100
AcDbLine
 10
-69.7616
 20
-10.1446
 30
0.0
 11
-69.63420000000001
 21
-8.144600000000001
 31
0.0
  0
LINE
  5
2FB
330
18
100
AcDbEntity
  8
DEFAULT
100
AcDbLine
 10
-70.6191
 20
-10.1446
 30
0.0
 11
-69.94929999999999
 21
-4.9845
 31
0.0
  0
LINE
  5
2FC
330
18
100
AcDbEntity
  8
DEFAULT
100
AcDbLine
 10
-71.4966
 20
-10.1446
 30
0.0
 11
-71.10250000000001
 21
-8.144600000000001
 31
0.0
  0
LINE
  5
2FD
330
18
100
AcDbEntity
  8
DEFAULT
100
AcDbLine
 10
-66.6134
 20
-1.7471
 30
0.0
 11
-61.5408
 21
-10.4983
 31
0.0
  0
LINE
  5
2FE
330
18
100
AcDbEntity
  8
DEFAULT
100
AcDbLine
 10
-67.7864
 20
-1.8113
 30
0.0
 11
-65.4481
 21
-10.477
 31
0.0
  0
LINE
  5
2FF
330
18
100
AcDbEntity
  8
DEFAULT
100
AcDbLine
 10
-72.4945
 20
-10.4768
 30
0.0
 11
-69.98350000000001
 21
-1.0389
 31
0.0
  0
LINE
  5
300
330
18
100
AcDbEntity
  8
DEFAULT
100
AcDbLine
 10
-88.9393
 20
-8.0526
 30
0.0
 11
-71.86620000000001
 21
1.8452
 31
0.0
  0
LINE
  5
301
330
18
100
AcDbEntity
  8
DEFAULT
100
AcDbLine
 10
-86.8258
 20
-5.2546
 30
0.0
 11
-83.5911
 21
-3.6523
 31
0.0
  0
LINE
  5
302
330
18
100
AcDbEntity
  8
DEFAULT
100
AcDbLine
 10
-85.69750000000001
 20
-3.3004
 30
0.0
 11
-77.8533
 21
-0.0344
 31
0.0
  0
LINE
  5
303
330
18
100
AcDbEntity
  8
DEFAULT
100
AcDbLine
 10
-84.74379999999999
 20
-1.6485
 30
0.0
 11
-81.86709999999999
 21
-0.6662
 31
0.0
  0
LINE
  5
304
330
18
100
AcDbEntity
  8
DEFAULT
100
AcDbLine
 10
-83.1904
 20
1.042
 30
0.0
 11
-80.578
 21
1.5665
 31
0.0
  0
LINE
  5
305
330
18
100
AcDbEntity
  8
DEFAULT
100
AcDbLine
 10
-82.53740000000001
 20
2.1731
 30
0.0
 11
-76.0809
 21
3.0352
 31
0.0
  0
LINE
  5
306
330
18
100
AcDbEntity
  8
DEFAULT
100
AcDbLine
 10
-81.9439
 20
3.201
 30
0.0
 11
-79.541
 21
3.3627
 31
0.0
  0
LINE
  5
307
330
18
100
AcDbEntity
  8
DEFAULT
100
AcDbLine
 10
-79.8322
 20
7.5232
 30
0.0
 11
-71.158
 21
5.2159
 31
0.0
  0
LINE
  5
308
330
18
100
AcDbEntity
  8
DEFAULT
100
AcDbLine
 10
-63.1984
 20
1.1826
 30
0.0
 11
-51.3806
 21
1.2023
 31
0.0
  0
LINE
  5
309
330
18
100
AcDbEntity
  8
DEFAULT
100
AcDbLine
 10
-64.51349999999999
 20
-0.7397
 30
0.0
 11
-47.4091
 21
-10.5762
 31
0.0
  0
LINE
  5
30A
330
18
100
AcDbEntity
  8
DEFAULT
100
AcDbLine
 10
-65.4969
 20
-1.3815
 30
0.0
 11
-56.3153
 21
-10.5321
 31
0.0
  0
LINE
  5
30B
330
18
100
AcDbEntity
  8
DEFAULT
100
AcDbLine
 10
-89.2448
 20
-10.1446
 30
0.0
 11
-86.1352
 21
-8.0587
 31
0.0
  0
LINE
  5
30C
330
18
100
AcDbEntity
  8
DEFAULT
100
AcDbLine
 10
-86.54510000000001
 20
-10.1446
 30
0.0
 11
-79.84560000000001
 21
-4.9845
 31
0.0
  0
LINE
  5
30D
330
18
100
AcDbEntity
  8
DEFAULT
100
AcDbLine
 10
-84.27670000000001
 20
-10.1446
 30
0.0
 11
-82.0044
 21
-8.144600000000001
 31
0.0
  0
POINT
  5
30E
330
18
100
AcDbEntity
  8
DEFAULT
 62
     1
100
AcDbPoint
 10
-73.005
 20
-12.3948
 30
0.0
  0
POINT
  5
30F
330
18
100
AcDbEntity
  8
DEFAULT
 62
     1
100
AcDbPoint
 10
-73.005
 20
-12.3948
 30
0.0
  0
LINE
  5
310
330
18
100
AcDbEntity
  8
DEFAULT
100
AcDbLine
 10
-53.8912
 20
-8.1447
 30
0.0
 11
-50.8857
 21
-10.1447
 31
0.0
  0
CIRCLE
  5
311
330
18
100
AcDbEntity
  8
DEFAULT
100
AcDbCircle
 10
-67.4436
 20
2.6756
 30
0.0
 40
4.5
  0
POINT
  5
312
330
18
100
AcDbEntity
  8
DEFAULT
 62
     1
100
AcDbPoint
 10
-73.005
 20
-12.3948
 30
0.0
  0
POINT
  5
313
330
18
100
AcDbEntity
  8
DEFAULT
 62
     1
100
AcDbPoint
 10
-73.005
 20
-12.3948
 30
0.0
  0
TEXT
  5
314
330
18
100
AcDbEntity
  8
DEFAULT
100
AcDbText
 10
-82.7312
 20
7.1662
 30
0.0
 40
1.8526
  1
5
  7
ENGRAVERS_MT_MEDIUM
100
AcDbText
  0
TEXT
  5
315
330
18
100
AcDbEntity
  8
DEFAULT
100
AcDbText
 10
-93.1233
 20
-10.7501
 30
0.0
 40
1.8526
  1
8
  7
ENGRAVERS_MT_MEDIUM
100
AcDbText
  0
POINT
  5
316
330
18
100
AcDbEntity
  8
DEFAULT
 62
     1
100
AcDbPoint
 10
-84.5774
 20
-12.3948
 30
0.0
  0
LINE
  5
317
330
18
100
AcDbEntity
  8
DEFAULT
100
AcDbLine
 10
-82.721
 20
-10.5316
 30
0.0
 11
-71.5005
 21
0.7288
 31
0.0
  0
POINT
  5
318
330
18
100
AcDbEntity
  8
DEFAULT
 62
     1
100
AcDbPoint
 10
-68.91670000000001
 20
-12.3947
 30
0.0
  0
LINE
  5
319
330
18
100
AcDbEntity
  8
DEFAULT
100
AcDbLine
 10
-68.9357
 20
-1.5698
 30
0.0
 11
-68.92019999999999
 21
-10.4696
 31
0.0
  0
POINT
  5
31A
330
18
100
AcDbEntity
  8
DEFAULT
 62
     1
100
AcDbPoint
 10
-77.8391
 20
-12.3948
 30
0.0
  0
LINE
  5
31B
330
18
100
AcDbEntity
  8
DEFAULT
100
AcDbLine
 10
-76.74850000000001
 20
-10.4978
 30
0.0
 11
-70.85850000000001
 21
-0.2548
 31
0.0
  0
TEXT
  5
31C
330
18
100
AcDbEntity
  8
DEFAULT
100
AcDbText
 10
-79.8052
 20
-13.2489
 30
0.0
 40
1.8526
  1
1
  7
ENGRAVERS_MT_MEDIUM
100
AcDbText
  0
TEXT
  5
31D
330
18
100
AcDbEntity
  8
DEFAULT
100
AcDbText
 10
-77.81570000000001
 20
-13.2104
 30
0.0
 40
1.8105
  1
0
  7
ENGRAVERS_MT_MEDIUM
100
AcDbText
  0
TEXT
  5
31E
330
18
100
AcDbEntity
  8
DEFAULT
100
AcDbText
 10
-74.9263
 20
-13.2477
 30
0.0
 40
1.8526
  1
1
  7
ENGRAVERS_MT_MEDIUM
100
AcDbText
  0
TEXT
  5
31F
330
18
100
AcDbEntity
  8
DEFAULT
100
AcDbText
 10
-72.8976
 20
-13.2456
 30
0.0
 40
1.8526
  1
1
  7
ENGRAVERS_MT_MEDIUM
100
AcDbText
  0
POINT
  5
320
330
18
100
AcDbEntity
  8
DEFAULT
 62
     1
100
AcDbPoint
 10
-73.005
 20
-12.3948
 30
0.0
  0
POINT
  5
321
330
18
100
AcDbEntity
  8
DEFAULT
 62
     1
100
AcDbPoint
 10
-68.91670000000001
 20
-12.3947
 30
0.0
  0
POINT
  5
322
330
18
100
AcDbEntity
  8
DEFAULT
 62
     1
100
AcDbPoint
 10
-68.91670000000001
 20
-12.3947
 30
0.0
  0
POINT
  5
323
330
18
100
AcDbEntity
  8
DEFAULT
 62
     1
100
AcDbPoint
 10
-68.91670000000001
 20
-12.3947
 30
0.0
  0
POINT
  5
324
330
18
100
AcDbEntity
  8
DEFAULT
 62
     1
100
AcDbPoint
 10
-68.91670000000001
 20
-12.3947
 30
0.0
  0
TEXT
  5
325
330
18
100
AcDbEntity
  8
DEFAULT
100
AcDbText
 10
-70.91249999999999
 20
-13.2455
 30
0.0
 40
1.8526
  1
1
  7
ENGRAVERS_MT_MEDIUM
100
AcDbText
  0
TEXT
  5
326
330
18
100
AcDbEntity
  8
DEFAULT
100
AcDbText
 10
-68.88890000000001
 20
-13.2474
 30
0.0
 40
1.8526
  1
2
  7
ENGRAVERS_MT_MEDIUM
100
AcDbText
  0
TEXT
  5
327
330
18
100
AcDbEntity
  8
DEFAULT
100
AcDbText
 10
-50.1778
 20
0.3383
 30
0.0
 40
1.8526
  1
6
  7
ENGRAVERS_MT_MEDIUM
100
AcDbText
  0
LINE
  5
328
330
18
100
AcDbEntity
  8
DEFAULT
100
AcDbLine
 10
-77.8081
 20
10.3649
 30
0.0
 11
-70.37390000000001
 21
6.0907
 31
0.0
  0
LINE
  5
329
330
18
100
AcDbEntity
  8
DEFAULT
100
AcDbLine
 10
-63.0206
 20
3.5049
 30
0.0
 11
-55.6009
 21
7.8047
 31
0.0
  0
TEXT
  5
32A
330
18
100
AcDbEntity
  8
DEFAULT
100
AcDbText
 10
-85.5341
 20
-13.2365
 30
0.0
 40
1.7976
  1
9
  7
ENGRAVERS_MT_MEDIUM
100
AcDbText
  0
TEXT
  5
32B
330
18
100
AcDbEntity
  8
DEFAULT
100
AcDbText
 10
-65.8215
 20
-13.2536
 30
0.0
 40
1.8341
  1
1
  7
ENGRAVERS_MT_MEDIUM
100
AcDbText
  0
TEXT
  5
32C
330
18
100
AcDbEntity
  8
DEFAULT
100
AcDbText
 10
-61.409
 20
-13.2536
 30
0.0
 40
1.8341
  1
2
  7
ENGRAVERS_MT_MEDIUM
100
AcDbText
  0
TEXT
  5
32D
330
18
100
AcDbEntity
  8
DEFAULT
100
AcDbText
 10
-55.4089
 20
-13.2365
 30
0.0
 40
1.7976
  1
3
  7
ENGRAVERS_MT_MEDIUM
100
AcDbText
  0
TEXT
  5
32E
330
18
100
AcDbEntity
  8
DEFAULT
100
AcDbText
 10
-45.2552
 20
-13.2536
 30
0.0
 40
1.8341
  1
4
  7
ENGRAVERS_MT_MEDIUM
100
AcDbText
  0
POINT
  5
32F
330
18
100
AcDbEntity
  8
DEFAULT
 62
     1
100
AcDbPoint
 10
-86.99509999999999
 20
-1.0473
 30
0.0
  0
TEXT
  5
330
330
18
100
AcDbEntity
  8
DEFAULT
100
AcDbText
 10
-87.7212
 20
-1.842
 30
0.0
 40
1.8526
  1
7
  7
ENGRAVERS_MT_MEDIUM
100
AcDbText
  0
LINE
  5
331
330
18
100
AcDbEntity
  8
DEFAULT
100
AcDbLine
 10
-84.4472
 20
-0.3596
 30
0.0
 11
-71.93040000000001
 21
3.0182
 31
0.0
  0
POINT
  5
332
330
18
100
AcDbEntity
  8
DEFAULT
 62
     1
100
AcDbPoint
 10
-83.9971
 20
4.1456
 30
0.0
  0
TEXT
  5
333
330
18
100
AcDbEntity
  8
DEFAULT
100
AcDbText
 10
-85.1033
 20
3.301
 30
0.0
 40
1.8526
  1
6
  7
ENGRAVERS_MT_MEDIUM
100
AcDbText
  0
LINE
  5
334
330
18
100
AcDbEntity
  8
DEFAULT
100
AcDbLine
 10
-81.8048
 20
4.1497
 30
0.0
 11
-71.6889
 21
4.1677
 31
0.0
  0
POINT
  5
335
330
18
100
AcDbEntity
  8
DEFAULT
 62
     1
100
AcDbPoint
 10
-45.8234
 20
-4.6308
 30
0.0
  0
TEXT
  5
336
330
18
100
AcDbEntity
  8
DEFAULT
100
AcDbText
 10
-47.0408
 20
-5.4189
 30
0.0
 40
1.8526
  1
5
  7
ENGRAVERS_MT_MEDIUM
100
AcDbText
  0
LINE
  5
337
330
18
100
AcDbEntity
  8
DEFAULT
100
AcDbLine
 10
-63.7295
 20
0.1348
 30
0.0
 11
-48.3647
 21
-3.9544
 31
0.0
  0
POINT
  5
338
330
18
100
AcDbEntity
  8
DEFAULT
 62
     1
100
AcDbPoint
 10
-51.61
 20
5.3924
 30
0.0
  0
TEXT
  5
339
330
18
100
AcDbEntity
  8
DEFAULT
100
AcDbText
 10
-52.7672
 20
4.4681
 30
0.0
 40
1.8526
  1
7
  7
ENGRAVERS_MT_MEDIUM
100
AcDbText
  0
LINE
  5
33A
330
18
100
AcDbEntity
  8
DEFAULT
100
AcDbLine
 10
-62.9566
 20
2.332
 30
0.0
 11
-53.5261
 21
4.8757
 31
0.0
  0
POINT
  5
33B
330
18
100
AcDbEntity
  8
DEFAULT
 62
     1
100
AcDbPoint
 10
-64.93080000000001
 20
-12.3948
 30
0.0
  0
POINT
  5
33C
330
18
100
AcDbEntity
  8
DEFAULT
 62
     1
100
AcDbPoint
 10
-60.4416
 20
-12.3948
 30
0.0
  0
POINT
  5
33D
330
18
100
AcDbEntity
  8
DEFAULT
 62
     1
100
AcDbPoint
 10
-54.4465
 20
-12.3948
 30
0.0
  0
POINT
  5
33E
330
18
100
AcDbEntity
  8
DEFAULT
 62
     1
100
AcDbPoint
 10
-44.2471
 20
-12.3948
 30
0.0
  0
POINT
  5
33F
330
18
100
AcDbEntity
  8
DEFAULT
 62
     1
100
AcDbPoint
 10
-49.1928
 20
1.2058
 30
0.0
  0
POINT
  5
340
330
18
100
AcDbEntity
  8
DEFAULT
 62
     1
100
AcDbPoint
 10
-51.8312
 20
5.3356
 30
0.0
  0
POINT
  5
341
330
18
100
AcDbEntity
  8
DEFAULT
 62
     1
100
AcDbPoint
 10
-81.7521
 20
8.0337
 30
0.0
  0
POINT
  5
342
330
18
100
AcDbEntity
  8
DEFAULT
 62
     1
100
AcDbPoint
 10
-92.09610000000001
 20
-9.8826
 30
0.0
  0
TEXT
  5
343
330
18
100
AcDbEntity
  8
DEFAULT
100
AcDbText
 10
-77.09999999999999
 20
14.407
 30
0.0
 40
1.8526
  1
EARTH
 50
59.99999999999999
  7
ENGRAVERS_MT_MEDIUM
100
AcDbText
  0
TEXT
  5
344
330
18
100
AcDbEntity
  8
DEFAULT
100
AcDbText
 10
-63.899
 20
25.1029
 30
0.0
 40
1.8526
  1
SKY
 50
299.0
  7
ENGRAVERS_MT_MEDIUM
100
AcDbText
  0
LINE
  5
345
330
18
100
AcDbEntity
  8
DEFAULT
100
AcDbLine
 10
-68.65179999999999
 20
33.0901
 30
0.0
 11
-66.23560000000001
 21
33.0901
 31
0.0
  0
LINE
  5
346
330
18
100
AcDbEntity
  8
DEFAULT
100
AcDbLine
 10
-68.65179999999999
 20
30.862
 30
0.0
 11
-66.23560000000001
 21
30.862
 31
0.0
  0
LINE
  5
347
330
18
100
AcDbEntity
  8
DEFAULT
100
AcDbLine
 10
-67.2106
 20
30.2968
 30
0.0
 11
-66.23560000000001
 21
30.2968
 31
0.0
  0
LINE
  5
348
330
18
100
AcDbEntity
  8
DEFAULT
100
AcDbLine
 10
-66.8122
 20
30.2968
 30
0.0
 11
-66.8122
 21
30.862
 31
0.0
  0
POINT
  5
349
330
18
100
AcDbEntity
  8
DEFAULT
 62
     1
100
AcDbPoint
 10
-67.011
 20
30.2968
 30
0.0
  0
LINE
  5
34A
330
18
100
AcDbEntity
  8
DEFAULT
100
AcDbLine
 10
-67.011
 20
30.2968
 30
0.0
 11
-67.011
 21
30.4917
 31
0.0
  0
LINE
  5
34B
330
18
100
AcDbEntity
  8
DEFAULT
100
AcDbLine
 10
-68.65179999999999
 20
29.3918
 30
0.0
 11
-68.65179999999999
 21
33.0901
 31
0.0
  0
LINE
  5
34C
330
18
100
AcDbEntity
  8
DEFAULT
100
AcDbLine
 10
-68.65179999999999
 20
29.3918
 30
0.0
 11
-66.23560000000001
 21
29.3918
 31
0.0
  0
LINE
  5
34D
330
18
100
AcDbEntity
  8
DEFAULT
100
AcDbLine
 10
-66.23560000000001
 20
29.3918
 30
0.0
 11
-66.23560000000001
 21
33.0901
 31
0.0
  0
LINE
  5
34E
330
18
100
AcDbEntity
  8
DEFAULT
100
AcDbLine
 10
-67.2106
 20
29.3918
 30
0.0
 11
-67.2106
 21
30.862
 31
0.0
  0
LINE
  5
34F
330
18
100
AcDbEntity
  8
DEFAULT
100
AcDbLine
 10
-67.2106
 20
30.4917
 30
0.0
 11
-66.8122
 21
30.4917
 31
0.0
  0
SPLINE
  5
350
330
18
100
AcDbEntity
  8
DEFAULT
100
AcDbSpline
210
0.0
220
0.0
230
1.0
 70
     8
 71
     3
 72
    33
 73
    29
 74
    27
 42
0.0000001
 43
0.0000001
 44
0.0000000001
 12
-0.9918419138882887
 22
-0.1274739889327088
 32
0.0
 13
0.2039540943781474
 23
0.9789804530154775
 33
0.0
 40
0.0
 40
0.0
 40
0.0
 40
0.0
 40
0.9304512561117779
 40
1.886012421082399
 40
2.634797924414293
 40
3.579550611629311
 40
4.268307898342123
 40
4.738988480053331
 40
5.247518223529557
 40
5.840283168511968
 40
6.315844016353753
 40
6.670640014076388
 40
6.948384590981144
 40
7.286573768809175
 40
7.534109624797754
 40
7.699636812896872
 40
7.909697613618953
 40
8.166791156906214
 40
8.343964095020352
 40
8.493605332652237
 40
8.630977309416057
 40
8.775714312286779
 40
8.890451751686479
 40
8.980267785889732
 40
9.07355192173287
 40
9.18979791091099
 40
9.285949301956562
 40
9.371680334844312
 40
9.371680334844312
 40
9.371680334844312
 40
9.371680334844312
 10
-66.23560000000001
 20
33.0901
 30
0.0
 10
-66.54322018488057
 20
33.05056388895866
 30
0.0
 10
-67.17253257007423
 20
32.94479694737117
 30
0.0
 10
-67.93199455378466
 20
32.44917091252056
 30
0.0
 10
-68.47308657139047
 20
31.74231330108053
 30
0.0
 10
-68.72755300582017
 20
30.94975720005769
 30
0.0
 10
-68.55528838346982
 20
30.23974426564598
 30
0.0
 10
-68.21394600270766
 20
29.78716142492926
 30
0.0
 10
-67.77071330591372
 20
29.49728574701803
 30
0.0
 10
-67.24710502680512
 20
29.33934532036491
 30
0.0
 10
-66.76897912471651
 20
29.47456677424291
 30
0.0
 10
-66.47844343609174
 20
29.71150547866374
 30
0.0
 10
-66.28664923622279
 20
29.97574704515609
 30
0.0
 10
-66.20986671479351
 20
30.26668023475121
 30
0.0
 10
-66.27308162848955
 20
30.51817018896477
 30
0.0
 10
-66.39699996787927
 20
30.68886339554657
 30
0.0
 10
-66.5727418318119
 20
30.8113155135179
 30
0.0
 10
-66.78393353284366
 20
30.8765891615957
 30
0.0
 10
-66.98326586139488
 20
30.84871238255455
 30
0.0
 10
-67.11435253933337
 20
30.75745217200038
 30
0.0
 10
-67.19578550489283
 20
30.6369305705047
 30
0.0
 10
-67.22675566975906
 20
30.49953580204981
 30
0.0
 10
-67.17399056522903
 20
30.38964023127715
 30
0.0
 10
-67.10388830251866
 20
30.31768686172265
 30
0.0
 10
-67.00282471788466
 20
30.28325013591386
 30
0.0
 10
-66.9027358779821
 20
30.32837406420948
 30
0.0
 10
-66.83390897982872
 20
30.40358960208618
 30
0.0
 10
-66.81802839839091
 20
30.46372366486202
 30
0.0
 10
-66.8122
 20
30.4917
 30
0.0
 11
-66.23560000000001
 21
33.0901
 31
0.0
 11
-67.1433
 21
32.8856
 31
0.0
 11
-67.9466
 21
32.3681
 31
0.0
 11
-68.4008
 21
31.7728
 31
0.0
 11
-68.65179999999999
 21
30.862
 31
0.0
 11
-68.4872
 21
30.1932
 31
0.0
 11
-68.2042
 21
29.8171
 31
0.0
 11
-67.78270000000001
 21
29.5326
 31
0.0
 11
-67.20690000000001
 21
29.3918
 31
0.0
 11
-66.74850000000001
 21
29.5184
 31
0.0
 11
-66.47110000000001
 21
29.7396
 31
0.0
 11
-66.3122
 21
29.9674
 31
0.0
 11
-66.23560000000001
 21
30.2968
 31
0.0
 11
-66.297
 21
30.5366
 31
0.0
 11
-66.3939
 21
30.6708
 31
0.0
 11
-66.56440000000001
 21
30.7935
 31
0.0
 11
-66.8122
 21
30.862
 31
0.0
 11
-66.987
 21
30.8331
 31
0.0
 11
-67.1105
 21
30.7486
 31
0.0
 11
-67.187
 21
30.6345
 31
0.0
 11
-67.2106
 21
30.4917
 31
0.0
 11
-67.1648
 21
30.3865
 31
0.0
 11
-67.1002
 21
30.3241
 31
0.0
 11
-67.011
 21
30.2968
 31
0.0
 11
-66.9023
 21
30.338
 31
0.0
 11
-66.83880000000001
 21
30.4102
 31
0.0
 11
-66.8122
 21
30.4917
 31
0.0
  0
POINT
  5
351
330
18
100
AcDbEntity
  8
DEFAULT
 62
     1
100
AcDbPoint
 10
-67.44370000000001
 20
29.3918
 30
0.0
  0
LINE
  5
352
330
18
100
AcDbEntity
  8
DEFAULT
100
AcDbLine
 10
-97.4435
 20
-17.8872
 30
0.0
 11
-37.4435
 21
-17.8872
 31
0.0
  0
LINE
  5
353
330
18
100
AcDbEntity
  8
DEFAULT
100
AcDbLine
 10
-97.4436
 20
-14.6447
 30
0.0
 11
-67.4436
 21
37.3168
 31
0.0
  0
LINE
  5
354
330
18
100
AcDbEntity
  8
DEFAULT
100
AcDbLine
 10
-67.4436
 20
37.3168
 30
0.0
 11
-37.4435
 21
-14.6447
 31
0.0
  0
TEXT
  5
355
330
18
100
AcDbEntity
  8
DEFAULT
100
AcDbText
 10
-159.5028
 20
17.6495
 30
0.0
 40
1.8526
  1
EARTH
 50
59.99999999999999
  7
ENGRAVERS_MT_MEDIUM
100
AcDbText
  0
POINT
  5
356
330
18
100
AcDbEntity
  8
DEFAULT
 62
     1
100
AcDbPoint
 10
-149.8464
 20
5.9182
 30
0.0
  0
POINT
  5
357
330
18
100
AcDbEntity
  8
DEFAULT
 62
     1
100
AcDbPoint
 10
-149.8464
 20
5.9182
 30
0.0
  0
CIRCLE
  5
358
330
18
100
AcDbEntity
  8
DEFAULT
100
AcDbCircle
 10
-149.8464
 20
5.9182
 30
0.0
 40
1.4999
  0
LINE
  5
359
330
18
100
AcDbEntity
  8
DEFAULT
100
AcDbLine
 10
-163.1148
 20
-1.7421
 30
0.0
 11
-149.8467
 21
21.2387
 31
0.0
  0
LINE
  5
35A
330
18
100
AcDbEntity
  8
DEFAULT
100
AcDbLine
 10
-149.8467
 20
21.2387
 30
0.0
 11
-136.5787
 21
-1.7421
 31
0.0
  0
LINE
  5
35B
330
18
100
AcDbEntity
  8
DEFAULT
100
AcDbLine
 10
-163.1148
 20
-1.7421
 30
0.0
 11
-136.5787
 21
-1.7421
 31
0.0
  0
LINE
  5
35C
330
18
100
AcDbEntity
  8
DEFAULT
100
AcDbLine
 10
-168.5882
 20
-4.9022
 30
0.0
 11
-149.8466
 21
27.559
 31
0.0
  0
LINE
  5
35D
330
18
100
AcDbEntity
  8
DEFAULT
100
AcDbLine
 10
-149.8466
 20
27.559
 30
0.0
 11
-131.1051
 21
-4.9022
 31
0.0
  0
LINE
  5
35E
330
18
100
AcDbEntity
  8
DEFAULT
100
AcDbLine
 10
-168.5882
 20
-4.9022
 30
0.0
 11
-131.1051
 21
-4.9022
 31
0.0
  0
LINE
  5
35F
330
18
100
AcDbEntity
  8
DEFAULT
100
AcDbLine
 10
-172.0522
 20
-6.9022
 30
0.0
 11
-127.6408
 21
-6.9022
 31
0.0
  0
LINE
  5
360
330
18
100
AcDbEntity
  8
DEFAULT
100
AcDbLine
 10
-172.0522
 20
-6.9022
 30
0.0
 11
-149.8465
 21
31.5591
 31
0.0
  0
LINE
  5
361
330
18
100
AcDbEntity
  8
DEFAULT
100
AcDbLine
 10
-149.8465
 20
31.5591
 30
0.0
 11
-127.6408
 21
-6.9022
 31
0.0
  0
TEXT
  5
362
330
18
100
AcDbEntity
  8
DEFAULT
100
AcDbText
 10
-164.622
 20
11.3077
 30
0.0
 40
1.8526
  1
9
  7
ENGRAVERS_MT_MEDIUM
100
AcDbText
  0
TEXT
  5
363
330
18
100
AcDbEntity
  8
DEFAULT
100
AcDbText
 10
-166.7073
 20
7.7673
 30
0.0
 40
1.8526
  1
8
  7
ENGRAVERS_MT_MEDIUM
100
AcDbText
  0
TEXT
  5
364
330
18
100
AcDbEntity
  8
DEFAULT
100
AcDbText
 10
-169.0332
 20
3.5808
 30
0.0
 40
1.8526
  1
7
  7
ENGRAVERS_MT_MEDIUM
100
AcDbText
  0
TEXT
  5
365
330
18
100
AcDbEntity
  8
DEFAULT
100
AcDbText
 10
-172.4522
 20
-2.2561
 30
0.0
 40
1.8526
  1
6
  7
ENGRAVERS_MT_MEDIUM
100
AcDbText
  0
TEXT
  5
366
330
18
100
AcDbEntity
  8
DEFAULT
100
AcDbText
 10
-174.022
 20
-10.0198
 30
0.0
 40
1.8526
  1
5
  7
ENGRAVERS_MT_MEDIUM
100
AcDbText
  0
TEXT
  5
367
330
18
100
AcDbEntity
  8
DEFAULT
100
AcDbText
 10
-163.8618
 20
-10.0198
 30
0.0
 40
1.8526
  1
4
  7
ENGRAVERS_MT_MEDIUM
100
AcDbText
  0
TEXT
  5
368
330
18
100
AcDbEntity
  8
DEFAULT
100
AcDbText
 10
-157.8403
 20
-10.0198
 30
0.0
 40
1.8526
  1
3
  7
ENGRAVERS_MT_MEDIUM
100
AcDbText
  0
TEXT
  5
369
330
18
100
AcDbEntity
  8
DEFAULT
100
AcDbText
 10
-153.3364
 20
-10.0198
 30
0.0
 40
1.8526
  1
2
  7
ENGRAVERS_MT_MEDIUM
100
AcDbText
  0
TEXT
  5
36A
330
18
100
AcDbEntity
  8
DEFAULT
100
AcDbText
 10
-149.2731
 20
-10.0198
 30
0.0
 40
1.8526
  1
1
  7
ENGRAVERS_MT_MEDIUM
100
AcDbText
  0
TEXT
  5
36B
330
18
100
AcDbEntity
  8
DEFAULT
100
AcDbText
 10
-139.3292
 20
-10.0052
 30
0.0
 40
1.8526
  1
1
  7
ENGRAVERS_MT_MEDIUM
100
AcDbText
  0
TEXT
  5
36C
330
18
100
AcDbEntity
  8
DEFAULT
100
AcDbText
 10
-141.3579
 20
-10.0031
 30
0.0
 40
1.8526
  1
1
  7
ENGRAVERS_MT_MEDIUM
100
AcDbText
  0
TEXT
  5
36D
330
18
100
AcDbEntity
  8
DEFAULT
100
AcDbText
 10
-134.6787
 20
-10.0064
 30
0.0
 40
1.8526
  1
1
  7
ENGRAVERS_MT_MEDIUM
100
AcDbText
  0
TEXT
  5
36E
330
18
100
AcDbEntity
  8
DEFAULT
100
AcDbText
 10
-132.6892
 20
-9.9679
 30
0.0
 40
1.8105
  1
0
  7
ENGRAVERS_MT_MEDIUM
100
AcDbText
  0
TEXT
  5
36F
330
18
100
AcDbEntity
  8
DEFAULT
100
AcDbText
 10
-126.1799
 20
-7.5076
 30
0.0
 40
1.8526
  1
9
  7
ENGRAVERS_MT_MEDIUM
100
AcDbText
  0
TEXT
  5
370
330
18
100
AcDbEntity
  8
DEFAULT
100
AcDbText
 10
-131.3221
 20
1.3276
 30
0.0
 40
1.8526
  1
8
  7
ENGRAVERS_MT_MEDIUM
100
AcDbText
  0
TEXT
  5
371
330
18
100
AcDbEntity
  8
DEFAULT
100
AcDbText
 10
-134.229
 20
6.5204
 30
0.0
 40
1.8526
  1
7
  7
ENGRAVERS_MT_MEDIUM
100
AcDbText
  0
TEXT
  5
372
330
18
100
AcDbEntity
  8
DEFAULT
100
AcDbText
 10
-136.5229
 20
10.4087
 30
0.0
 40
1.8526
  1
6
  7
ENGRAVERS_MT_MEDIUM
100
AcDbText
  0
TEXT
  5
373
330
18
100
AcDbEntity
  8
DEFAULT
100
AcDbText
 10
-138.5102
 20
13.8611
 30
0.0
 40
1.8526
  1
5
  7
ENGRAVERS_MT_MEDIUM
100
AcDbText
  0
CIRCLE
  5
374
330
18
100
AcDbEntity
  8
DEFAULT
100
AcDbCircle
 10
-139.016
 20
13.8749
 30
0.0
 40
0.2125
  0
CIRCLE
  5
375
330
18
100
AcDbEntity
  8
DEFAULT
100
AcDbCircle
 10
-137.2524
 20
10.8202
 30
0.0
 40
0.2125
  0
CIRCLE
  5
376
330
18
100
AcDbEntity
  8
DEFAULT
100
AcDbCircle
 10
-135.2728
 20
7.3915
 30
0.0
 40
0.2125
  0
CIRCLE
  5
377
330
18
100
AcDbEntity
  8
DEFAULT
100
AcDbCircle
 10
-132.6377
 20
2.8274
 30
0.0
 40
0.2125
  0
CIRCLE
  5
378
330
18
100
AcDbEntity
  8
DEFAULT
100
AcDbCircle
 10
-128.1667
 20
-4.9167
 30
0.0
 40
0.2125
  0
CIRCLE
  5
379
330
18
100
AcDbEntity
  8
DEFAULT
100
AcDbCircle
 10
-134.4191
 20
-7.4397
 30
0.0
 40
0.2125
  0
CIRCLE
  5
37A
330
18
100
AcDbEntity
  8
DEFAULT
100
AcDbCircle
 10
-140.4359
 20
-7.4397
 30
0.0
 40
0.2125
  0
CIRCLE
  5
37B
330
18
100
AcDbEntity
  8
DEFAULT
100
AcDbCircle
 10
-144.7407
 20
-7.4397
 30
0.0
 40
0.2125
  0
CIRCLE
  5
37C
330
18
100
AcDbEntity
  8
DEFAULT
100
AcDbCircle
 10
-148.3703
 20
-7.4397
 30
0.0
 40
0.2125
  0
CIRCLE
  5
37D
330
18
100
AcDbEntity
  8
DEFAULT
100
AcDbCircle
 10
-151.8971
 20
-7.4397
 30
0.0
 40
0.2125
  0
CIRCLE
  5
37E
330
18
100
AcDbEntity
  8
DEFAULT
100
AcDbCircle
 10
-155.8557
 20
-7.4397
 30
0.0
 40
0.2125
  0
CIRCLE
  5
37F
330
18
100
AcDbEntity
  8
DEFAULT
100
AcDbCircle
 10
-161.1252
 20
-7.4397
 30
0.0
 40
0.2125
  0
CIRCLE
  5
380
330
18
100
AcDbEntity
  8
DEFAULT
100
AcDbCircle
 10
-170.065
 20
-7.4397
 30
0.0
 40
0.2125
  0
CIRCLE
  5
381
330
18
100
AcDbEntity
  8
DEFAULT
100
AcDbCircle
 10
-169.1308
 20
-0.7668
 30
0.0
 40
0.2125
  0
CIRCLE
  5
382
330
18
100
AcDbEntity
  8
DEFAULT
100
AcDbCircle
 10
-166.1217
 20
4.445
 30
0.0
 40
0.2125
  0
CIRCLE
  5
383
330
18
100
AcDbEntity
  8
DEFAULT
100
AcDbCircle
 10
-163.9692
 20
8.173299999999999
 30
0.0
 40
0.2125
  0
CIRCLE
  5
384
330
18
100
AcDbEntity
  8
DEFAULT
100
AcDbCircle
 10
-162.1544
 20
11.3166
 30
0.0
 40
0.2125
  0
LINE
  5
385
330
18
100
AcDbEntity
  8
DEFAULT
100
AcDbLine
 10
-163.4036
 20
9.578300000000001
 30
0.0
 11
-162.6961
 21
9.3032
 31
0.0
  0
LINE
  5
386
330
18
100
AcDbEntity
  8
DEFAULT
100
AcDbLine
 10
-138.5318
 20
11.9614
 30
0.0
 11
-137.8255
 21
12.2382
 31
0.0
  0
LINE
  5
387
330
18
100
AcDbEntity
  8
DEFAULT
100
AcDbLine
 10
-138.4021
 20
-4.9021
 30
0.0
 11
-136.6545
 21
-6.9021
 31
0.0
  0
LINE
  5
388
330
18
100
AcDbEntity
  8
DEFAULT
100
AcDbLine
 10
-142.104
 20
-1.742
 30
0.0
 11
-138.1594
 21
-6.9021
 31
0.0
  0
LINE
  5
389
330
18
100
AcDbEntity
  8
DEFAULT
100
AcDbLine
 10
-140.8452
 20
-4.9021
 30
0.0
 11
-139.5139
 21
-6.9021
 31
0.0
  0
LINE
  5
38A
330
18
100
AcDbEntity
  8
DEFAULT
100
AcDbLine
 10
-142.8658
 20
-4.9021
 30
0.0
 11
-141.8839
 21
-6.9021
 31
0.0
  0
LINE
  5
38B
330
18
100
AcDbEntity
  8
DEFAULT
100
AcDbLine
 10
-145.0687
 20
-1.742
 30
0.0
 11
-142.9422
 21
-6.9021
 31
0.0
  0
LINE
  5
38C
330
18
100
AcDbEntity
  8
DEFAULT
100
AcDbLine
 10
-144.6142
 20
-4.9021
 30
0.0
 11
-143.9393
 21
-6.9021
 31
0.0
  0
LINE
  5
38D
330
18
100
AcDbEntity
  8
DEFAULT
100
AcDbLine
 10
-149.8972
 20
27.4715
 30
0.0
 11
-149.645
 21
31.2101
 31
0.0
  0
LINE
  5
38E
330
18
100
AcDbEntity
  8
DEFAULT
100
AcDbLine
 10
-149.4141
 20
20.4893
 30
0.0
 11
-148.2946
 21
28.8712
 31
0.0
  0
LINE
  5
38F
330
18
100
AcDbEntity
  8
DEFAULT
100
AcDbLine
 10
-147.7569
 20
23.9395
 30
0.0
 11
-147.1608
 21
26.9073
 31
0.0
  0
LINE
  5
390
330
18
100
AcDbEntity
  8
DEFAULT
100
AcDbLine
 10
-150.1892
 20
10.4051
 30
0.0
 11
-146.189
 21
25.2241
 31
0.0
  0
LINE
  5
391
330
18
100
AcDbEntity
  8
DEFAULT
100
AcDbLine
 10
-146.1986
 20
21.2404
 30
0.0
 11
-145.3401
 21
23.7538
 31
0.0
  0
LINE
  5
392
330
18
100
AcDbEntity
  8
DEFAULT
100
AcDbLine
 10
-147.0843
 20
16.4541
 30
0.0
 11
-144.5876
 21
22.4503
 31
0.0
  0
LINE
  5
393
330
18
100
AcDbEntity
  8
DEFAULT
100
AcDbLine
 10
-144.977
 20
19.1247
 30
0.0
 11
-143.9104
 21
21.2775
 31
0.0
  0
LINE
  5
394
330
18
100
AcDbEntity
  8
DEFAULT
100
AcDbLine
 10
-149.0163
 20
10.3409
 30
0.0
 11
-143.294
 21
20.2099
 31
0.0
  0
LINE
  5
395
330
18
100
AcDbEntity
  8
DEFAULT
100
AcDbLine
 10
-143.9669
 20
17.3751
 30
0.0
 11
-142.7256
 21
19.2253
 31
0.0
  0
LINE
  5
396
330
18
100
AcDbEntity
  8
DEFAULT
100
AcDbLine
 10
-145.602
 20
13.8866
 30
0.0
 11
-142.1961
 21
18.3082
 31
0.0
  0
LINE
  5
397
330
18
100
AcDbEntity
  8
DEFAULT
100
AcDbLine
 10
-151.3386
 20
10.1636
 30
0.0
 11
-151.3033
 21
29.0359
 31
0.0
  0
LINE
  5
398
330
18
100
AcDbEntity
  8
DEFAULT
100
AcDbLine
 10
-152.6702
 20
26.6686
 30
0.0
 11
-152.4406
 21
23.0663
 31
0.0
  0
LINE
  5
399
330
18
100
AcDbEntity
  8
DEFAULT
100
AcDbLine
 10
-153.798
 20
24.7151
 30
0.0
 11
-152.7041
 21
16.2898
 31
0.0
  0
LINE
  5
39A
330
18
100
AcDbEntity
  8
DEFAULT
100
AcDbLine
 10
-154.752
 20
23.0628
 30
0.0
 11
-154.1644
 21
20.0806
 31
0.0
  0
LINE
  5
39B
330
18
100
AcDbEntity
  8
DEFAULT
100
AcDbLine
 10
-155.5787
 20
21.6309
 30
0.0
 11
-152.3868
 21
9.6326
 31
0.0
  0
LINE
  5
39C
330
18
100
AcDbEntity
  8
DEFAULT
100
AcDbLine
 10
-156.3054
 20
20.3723
 30
0.0
 11
-155.4536
 21
17.8477
 31
0.0
  0
LINE
  5
39D
330
18
100
AcDbEntity
  8
DEFAULT
100
AcDbLine
 10
-156.9583
 20
19.2414
 30
0.0
 11
-154.4768
 21
13.2195
 31
0.0
  0
LINE
  5
39E
330
18
100
AcDbEntity
  8
DEFAULT
100
AcDbLine
 10
-157.5518
 20
18.2135
 30
0.0
 11
-156.4906
 21
16.0516
 31
0.0
  0
LINE
  5
39F
330
18
100
AcDbEntity
  8
DEFAULT
100
AcDbLine
 10
-143.0924
 20
15.8604
 30
0.0
 11
-141.6977
 21
17.445
 31
0.0
  0
LINE
  5
3A0
330
18
100
AcDbEntity
  8
DEFAULT
100
AcDbLine
 10
-147.8999
 20
9.975400000000001
 30
0.0
 11
-141.2249
 21
16.626
 31
0.0
  0
LINE
  5
3A1
330
18
100
AcDbEntity
  8
DEFAULT
100
AcDbLine
 10
-142.3058
 20
14.498
 30
0.0
 11
-140.7707
 21
15.8394
 31
0.0
  0
LINE
  5
3A2
330
18
100
AcDbEntity
  8
DEFAULT
100
AcDbLine
 10
-144.466
 20
11.919
 30
0.0
 11
-140.3318
 21
15.0792
 31
0.0
  0
LINE
  5
3A3
330
18
100
AcDbEntity
  8
DEFAULT
100
AcDbLine
 10
-141.5716
 20
13.2263
 30
0.0
 11
-139.9032
 21
14.3368
 31
0.0
  0
LINE
  5
3A4
330
18
100
AcDbEntity
  8
DEFAULT
100
AcDbLine
 10
-140.8626
 20
11.9981
 30
0.0
 11
-139.0631
 21
12.8816
 31
0.0
  0
LINE
  5
3A5
330
18
100
AcDbEntity
  8
DEFAULT
100
AcDbLine
 10
-143.4577
 20
10.1726
 30
0.0
 11
-138.6442
 21
12.1562
 31
0.0
  0
LINE
  5
3A6
330
18
100
AcDbEntity
  8
DEFAULT
100
AcDbLine
 10
-140.1539
 20
10.7707
 30
0.0
 11
-138.2209
 21
11.423
 31
0.0
  0
LINE
  5
3A7
330
18
100
AcDbEntity
  8
DEFAULT
100
AcDbLine
 10
-139.4202
 20
9.5
 30
0.0
 11
-137.3466
 21
9.9087
 31
0.0
  0
LINE
  5
3A8
330
18
100
AcDbEntity
  8
DEFAULT
100
AcDbLine
 10
-142.43
 20
8.3926
 30
0.0
 11
-136.8867
 21
9.1121
 31
0.0
  0
LINE
  5
3A9
330
18
100
AcDbEntity
  8
DEFAULT
100
AcDbLine
 10
-138.6319
 20
8.134600000000001
 30
0.0
 11
-136.4043
 21
8.2765
 31
0.0
  0
LINE
  5
3AA
330
18
100
AcDbEntity
  8
DEFAULT
100
AcDbLine
 10
-158.1019
 20
17.2607
 30
0.0
 11
-153.2623
 21
8.8477
 31
0.0
  0
LINE
  5
3AB
330
18
100
AcDbEntity
  8
DEFAULT
100
AcDbLine
 10
-158.6102
 20
16.3803
 30
0.0
 11
-157.3737
 21
14.522
 31
0.0
  0
LINE
  5
3AC
330
18
100
AcDbEntity
  8
DEFAULT
100
AcDbLine
 10
-159.0925
 20
15.5449
 30
0.0
 11
-155.6979
 21
11.1045
 31
0.0
  0
LINE
  5
3AD
330
18
100
AcDbEntity
  8
DEFAULT
100
AcDbLine
 10
-159.5526
 20
14.7481
 30
0.0
 11
-158.1621
 21
13.1565
 31
0.0
  0
LINE
  5
3AE
330
18
100
AcDbEntity
  8
DEFAULT
100
AcDbLine
 10
-159.9978
 20
13.9768
 30
0.0
 11
-153.9041
 21
7.8639
 31
0.0
  0
LINE
  5
3AF
330
18
100
AcDbEntity
  8
DEFAULT
100
AcDbLine
 10
-160.4266
 20
13.2342
 30
0.0
 11
-158.8955
 21
11.8862
 31
0.0
  0
LINE
  5
3B0
330
18
100
AcDbEntity
  8
DEFAULT
100
AcDbLine
 10
-160.8499
 20
12.5009
 30
0.0
 11
-156.7257
 21
9.324299999999999
 31
0.0
  0
LINE
  5
3B1
330
18
100
AcDbEntity
  8
DEFAULT
100
AcDbLine
 10
-161.2689
 20
11.7752
 30
0.0
 11
-159.6044
 21
10.6583
 31
0.0
  0
LINE
  5
3B2
330
18
100
AcDbEntity
  8
DEFAULT
100
AcDbLine
 10
-162.109
 20
10.3201
 30
0.0
 11
-160.3135
 21
9.430300000000001
 31
0.0
  0
LINE
  5
3B3
330
18
100
AcDbEntity
  8
DEFAULT
100
AcDbLine
 10
-162.5373
 20
9.578200000000001
 30
0.0
 11
-157.7338
 21
7.5782
 31
0.0
  0
LINE
  5
3B4
330
18
100
AcDbEntity
  8
DEFAULT
100
AcDbLine
 10
-162.9763
 20
8.8179
 30
0.0
 11
-161.0473
 21
8.159100000000001
 31
0.0
  0
LINE
  5
3B5
330
18
100
AcDbEntity
  8
DEFAULT
100
AcDbLine
 10
-163.9035
 20
7.212
 30
0.0
 11
-161.8343
 21
6.7962
 31
0.0
  0
LINE
  5
3B6
330
18
100
AcDbEntity
  8
DEFAULT
100
AcDbLine
 10
-164.4018
 20
6.3489
 30
0.0
 11
-158.8701
 21
5.6102
 31
0.0
  0
LINE
  5
3B7
330
18
100
AcDbEntity
  8
DEFAULT
100
AcDbLine
 10
-164.9312
 20
5.432
 30
0.0
 11
-162.7084
 21
5.2821
 31
0.0
  0
LINE
  5
3B8
330
18
100
AcDbEntity
  8
DEFAULT
100
AcDbLine
 10
-166.116
 20
3.3798
 30
0.0
 11
-163.7186
 21
3.5322
 31
0.0
  0
LINE
  5
3B9
330
18
100
AcDbEntity
  8
DEFAULT
100
AcDbLine
 10
-166.7932
 20
2.2067
 30
0.0
 11
-160.3524
 21
3.0427
 31
0.0
  0
LINE
  5
3BA
330
18
100
AcDbEntity
  8
DEFAULT
100
AcDbLine
 10
-167.5456
 20
0.9035
 30
0.0
 11
-164.9401
 21
1.4166
 31
0.0
  0
LINE
  5
3BB
330
18
100
AcDbEntity
  8
DEFAULT
100
AcDbLine
 10
-169.3661
 20
-2.2497
 30
0.0
 11
-166.4982
 21
-1.2821
 31
0.0
  0
LINE
  5
3BC
330
18
100
AcDbEntity
  8
DEFAULT
100
AcDbLine
 10
-170.5004
 20
-4.2143
 30
0.0
 11
-162.6822
 21
-0.9926
 31
0.0
  0
LINE
  5
3BD
330
18
100
AcDbEntity
  8
DEFAULT
100
AcDbLine
 10
-171.8508
 20
-6.5533
 30
0.0
 11
-168.4867
 21
-4.9022
 31
0.0
  0
LINE
  5
3BE
330
18
100
AcDbEntity
  8
DEFAULT
100
AcDbLine
 10
-164.1488
 20
-6.9022
 30
0.0
 11
-157.3985
 21
-1.7421
 31
0.0
  0
LINE
  5
3BF
330
18
100
AcDbEntity
  8
DEFAULT
100
AcDbLine
 10
-162.2409
 20
-6.9022
 30
0.0
 11
-159.9515
 21
-4.9022
 31
0.0
  0
LINE
  5
3C0
330
18
100
AcDbEntity
  8
DEFAULT
100
AcDbLine
 10
-159.1346
 20
-6.9022
 30
0.0
 11
-157.3739
 21
-4.9022
 31
0.0
  0
LINE
  5
3C1
330
18
100
AcDbEntity
  8
DEFAULT
100
AcDbLine
 10
-157.8286
 20
-6.9022
 30
0.0
 11
-153.854
 21
-1.7421
 31
0.0
  0
LINE
  5
3C2
330
18
100
AcDbEntity
  8
DEFAULT
100
AcDbLine
 10
-156.6416
 20
-6.9022
 30
0.0
 11
-155.2997
 21
-4.9022
 31
0.0
  0
LINE
  5
3C3
330
18
100
AcDbEntity
  8
DEFAULT
100
AcDbLine
 10
-154.5256
 20
-6.9022
 30
0.0
 11
-153.5347
 21
-4.9022
 31
0.0
  0
LINE
  5
3C4
330
18
100
AcDbEntity
  8
DEFAULT
100
AcDbLine
 10
-153.5604
 20
-6.9022
 30
0.0
 11
-151.412
 21
-1.7421
 31
0.0
  0
LINE
  5
3C5
330
18
100
AcDbEntity
  8
DEFAULT
100
AcDbLine
 10
-152.6409
 20
-6.9022
 30
0.0
 11
-151.9578
 21
-4.9022
 31
0.0
  0
LINE
  5
3C6
330
18
100
AcDbEntity
  8
DEFAULT
100
AcDbLine
 10
-150.8926
 20
-6.9022
 30
0.0
 11
-150.4909
 21
-4.9022
 31
0.0
  0
LINE
  5
3C7
330
18
100
AcDbEntity
  8
DEFAULT
100
AcDbLine
 10
-150.0459
 20
-6.9022
 30
0.0
 11
-149.357
 21
-1.7421
 31
0.0
  0
LINE
  5
3C8
330
18
100
AcDbEntity
  8
DEFAULT
100
AcDbLine
 10
-149.2082
 20
-6.9022
 30
0.0
 11
-149.0734
 21
-4.9022
 31
0.0
  0
LINE
  5
3C9
330
18
100
AcDbEntity
  8
DEFAULT
100
AcDbLine
 10
-147.6558
 20
-4.9021
 30
0.0
 11
-147.5284
 21
-6.9021
 31
0.0
  0
LINE
  5
3CA
330
18
100
AcDbEntity
  8
DEFAULT
100
AcDbLine
 10
-147.3407
 20
-1.742
 30
0.0
 11
-146.6709
 21
-6.9021
 31
0.0
  0
LINE
  5
3CB
330
18
100
AcDbEntity
  8
DEFAULT
100
AcDbLine
 10
-146.1875
 20
-4.9021
 30
0.0
 11
-145.7934
 21
-6.9021
 31
0.0
  0
LINE
  5
3CC
330
18
100
AcDbEntity
  8
DEFAULT
100
AcDbLine
 10
-155.7492
 20
-7.2558
 30
0.0
 11
-150.6766
 21
1.4954
 31
0.0
  0
LINE
  5
3CD
330
18
100
AcDbEntity
  8
DEFAULT
100
AcDbLine
 10
-151.8419
 20
-7.2345
 30
0.0
 11
-149.5036
 21
1.4312
 31
0.0
  0
LINE
  5
3CE
330
18
100
AcDbEntity
  8
DEFAULT
100
AcDbLine
 10
-148.37
 20
-7.2272
 30
0.0
 11
-148.3543
 21
1.6727
 31
0.0
  0
LINE
  5
3CF
330
18
100
AcDbEntity
  8
DEFAULT
100
AcDbLine
 10
-147.3065
 20
2.2036
 30
0.0
 11
-144.7955
 21
-7.2343
 31
0.0
  0
LINE
  5
3D0
330
18
100
AcDbEntity
  8
DEFAULT
100
AcDbLine
 10
-146.4315
 20
2.9877
 30
0.0
 11
-140.5419
 21
-7.2553
 31
0.0
  0
LINE
  5
3D1
330
18
100
AcDbEntity
  8
DEFAULT
100
AcDbLine
 10
-145.7895
 20
3.9713
 30
0.0
 11
-134.5692
 21
-7.2891
 31
0.0
  0
LINE
  5
3D2
330
18
100
AcDbEntity
  8
DEFAULT
100
AcDbLine
 10
-145.4238
 20
5.0877
 30
0.0
 11
-128.3507
 21
-4.8101
 31
0.0
  0
LINE
  5
3D3
330
18
100
AcDbEntity
  8
DEFAULT
100
AcDbLine
 10
-133.6989
 20
-0.4098
 30
0.0
 11
-130.4642
 21
-2.0121
 31
0.0
  0
LINE
  5
3D4
330
18
100
AcDbEntity
  8
DEFAULT
100
AcDbLine
 10
-139.4367
 20
3.2081
 30
0.0
 11
-131.5925
 21
-0.0579
 31
0.0
  0
LINE
  5
3D5
330
18
100
AcDbEntity
  8
DEFAULT
100
AcDbLine
 10
-135.4229
 20
2.5763
 30
0.0
 11
-132.5462
 21
1.594
 31
0.0
  0
LINE
  5
3D6
330
18
100
AcDbEntity
  8
DEFAULT
100
AcDbLine
 10
-145.3596
 20
6.2607
 30
0.0
 11
-132.843
 21
2.8828
 31
0.0
  0
LINE
  5
3D7
330
18
100
AcDbEntity
  8
DEFAULT
100
AcDbLine
 10
-136.712
 20
4.809
 30
0.0
 11
-134.0996
 21
4.2845
 31
0.0
  0
LINE
  5
3D8
330
18
100
AcDbEntity
  8
DEFAULT
100
AcDbLine
 10
-141.2091
 20
6.2777
 30
0.0
 11
-134.7526
 21
5.4156
 31
0.0
  0
LINE
  5
3D9
330
18
100
AcDbEntity
  8
DEFAULT
100
AcDbLine
 10
-137.749
 20
6.6052
 30
0.0
 11
-135.3461
 21
6.4435
 31
0.0
  0
LINE
  5
3DA
330
18
100
AcDbEntity
  8
DEFAULT
100
AcDbLine
 10
-145.6011
 20
7.4102
 30
0.0
 11
-135.4854
 21
7.392
 31
0.0
  0
LINE
  5
3DB
330
18
100
AcDbEntity
  8
DEFAULT
100
AcDbLine
 10
-146.132
 20
8.458399999999999
 30
0.0
 11
-137.4578
 21
10.7657
 31
0.0
  0
LINE
  5
3DC
330
18
100
AcDbEntity
  8
DEFAULT
100
AcDbLine
 10
-146.9161
 20
9.3332
 30
0.0
 11
-139.2003
 21
13.7692
 31
0.0
  0
LINE
  5
3DD
330
18
100
AcDbEntity
  8
DEFAULT
100
AcDbLine
 10
-161.9706
 20
11.2102
 30
0.0
 11
-154.2694
 21
6.7474
 31
0.0
  0
LINE
  5
3DE
330
18
100
AcDbEntity
  8
DEFAULT
100
AcDbLine
 10
-163.7642
 20
8.1181
 30
0.0
 11
-154.3334
 21
5.5745
 31
0.0
  0
LINE
  5
3DF
330
18
100
AcDbEntity
  8
DEFAULT
100
AcDbLine
 10
-165.9094
 20
4.4448
 30
0.0
 11
-154.0916
 21
4.4251
 31
0.0
  0
LINE
  5
3E0
330
18
100
AcDbEntity
  8
DEFAULT
100
AcDbLine
 10
-168.9255
 20
-0.712
 30
0.0
 11
-153.5605
 21
3.3773
 31
0.0
  0
LINE
  5
3E1
330
18
100
AcDbEntity
  8
DEFAULT
100
AcDbLine
 10
-169.8809
 20
-7.3337
 30
0.0
 11
-152.7765
 21
2.5028
 31
0.0
  0
LINE
  5
3E2
330
18
100
AcDbEntity
  8
DEFAULT
100
AcDbLine
 10
-160.9747
 20
-7.2896
 30
0.0
 11
-151.7931
 21
1.861
 31
0.0
  0
LINE
  5
3E3
330
18
100
AcDbEntity
  8
DEFAULT
100
AcDbLine
 10
-131.1548
 20
-4.8162
 30
0.0
 11
-128.0452
 21
-6.9021
 31
0.0
  0
LINE
  5
3E4
330
18
100
AcDbEntity
  8
DEFAULT
100
AcDbLine
 10
-137.4444
 20
-1.742
 30
0.0
 11
-130.7449
 21
-6.9021
 31
0.0
  0
LINE
  5
3E5
330
18
100
AcDbEntity
  8
DEFAULT
100
AcDbLine
 10
-135.2856
 20
-4.9021
 30
0.0
 11
-133.0133
 21
-6.9021
 31
0.0
  0
POINT
  5
3E6
330
18
100
AcDbEntity
  8
DEFAULT
 62
     1
100
AcDbPoint
 10
-144.285
 20
-9.1523
 30
0.0
  0
POINT
  5
3E7
330
18
100
AcDbEntity
  8
DEFAULT
 62
     1
100
AcDbPoint
 10
-144.285
 20
-9.1523
 30
0.0
  0
TEXT
  5
3E8
330
18
100
AcDbEntity
  8
DEFAULT
100
AcDbText
 10
-146.2808
 20
-10.0031
 30
0.0
 40
1.8526
  1
1
  7
ENGRAVERS_MT_MEDIUM
100
AcDbText
  0
TEXT
  5
3E9
330
18
100
AcDbEntity
  8
DEFAULT
100
AcDbText
 10
-144.2572
 20
-10.005
 30
0.0
 40
1.8526
  1
2
  7
ENGRAVERS_MT_MEDIUM
100
AcDbText
  0
LINE
  5
3EA
330
18
100
AcDbEntity
  8
DEFAULT
100
AcDbLine
 10
-166.4043
 20
-6.9022
 30
0.0
 11
-163.3988
 21
-4.9022
 31
0.0
  0
CIRCLE
  5
3EB
330
18
100
AcDbEntity
  8
DEFAULT
100
AcDbCircle
 10
-149.8464
 20
5.9181
 30
0.0
 40
4.5
  0
TEXT
  5
3EC
330
18
100
AcDbEntity
  8
DEFAULT
100
AcDbText
 10
-146.3018
 20
28.3454
 30
0.0
 40
1.8526
  1
SKY
 50
299.0
  7
ENGRAVERS_MT_MEDIUM
100
AcDbText
  0
LINE
  5
3ED
330
18
100
AcDbEntity
  8
DEFAULT
100
AcDbLine
 10
-151.0546
 20
36.3326
 30
0.0
 11
-148.6384
 21
36.3326
 31
0.0
  0
LINE
  5
3EE
330
18
100
AcDbEntity
  8
DEFAULT
100
AcDbLine
 10
-151.0546
 20
34.1045
 30
0.0
 11
-148.6384
 21
34.1045
 31
0.0
  0
LINE
  5
3EF
330
18
100
AcDbEntity
  8
DEFAULT
100
AcDbLine
 10
-149.6134
 20
33.5393
 30
0.0
 11
-148.6384
 21
33.5393
 31
0.0
  0
LINE
  5
3F0
330
18
100
AcDbEntity
  8
DEFAULT
100
AcDbLine
 10
-149.215
 20
33.5393
 30
0.0
 11
-149.215
 21
34.1045
 31
0.0
  0
POINT
  5
3F1
330
18
100
AcDbEntity
  8
DEFAULT
 62
     1
100
AcDbPoint
 10
-149.4138
 20
33.5393
 30
0.0
  0
LINE
  5
3F2
330
18
100
AcDbEntity
  8
DEFAULT
100
AcDbLine
 10
-149.4138
 20
33.5393
 30
0.0
 11
-149.4138
 21
33.7342
 31
0.0
  0
LINE
  5
3F3
330
18
100
AcDbEntity
  8
DEFAULT
100
AcDbLine
 10
-151.0546
 20
32.6343
 30
0.0
 11
-151.0546
 21
36.3326
 31
0.0
  0
LINE
  5
3F4
330
18
100
AcDbEntity
  8
DEFAULT
100
AcDbLine
 10
-151.0546
 20
32.6343
 30
0.0
 11
-148.6384
 21
32.6343
 31
0.0
  0
LINE
  5
3F5
330
18
100
AcDbEntity
  8
DEFAULT
100
AcDbLine
 10
-148.6384
 20
32.6343
 30
0.0
 11
-148.6384
 21
36.3326
 31
0.0
  0
LINE
  5
3F6
330
18
100
AcDbEntity
  8
DEFAULT
100
AcDbLine
 10
-149.6134
 20
32.6343
 30
0.0
 11
-149.6134
 21
34.1045
 31
0.0
  0
LINE
  5
3F7
330
18
100
AcDbEntity
  8
DEFAULT
100
AcDbLine
 10
-149.6134
 20
33.7342
 30
0.0
 11
-149.215
 21
33.7342
 31
0.0
  0
SPLINE
  5
3F8
330
18
100
AcDbEntity
  8
DEFAULT
100
AcDbSpline
210
0.0
220
0.0
230
1.0
 70
     8
 71
     3
 72
    33
 73
    29
 74
    27
 42
0.0000001
 43
0.0000001
 44
0.0000000001
 12
-0.9918419138882887
 22
-0.1274739889327088
 32
0.0
 13
0.2039540943781474
 23
0.9789804530154775
 33
0.0
 40
0.0
 40
0.0
 40
0.0
 40
0.0
 40
0.9304512561117903
 40
1.886012421082415
 40
2.634797924414297
 40
3.57955061162932
 40
4.268307898342142
 40
4.738988480053337
 40
5.247518223529575
 40
5.840283168511972
 40
6.31584401635377
 40
6.670640014076407
 40
6.948384590981149
 40
7.286573768809184
 40
7.534109624797774
 40
7.699636812896875
 40
7.909697613618956
 40
8.166791156906232
 40
8.343964095020386
 40
8.493605332652244
 40
8.630977309416071
 40
8.7757143122868
 40
8.890451751686509
 40
8.980267785889769
 40
9.07355192173288
 40
9.189797910911002
 40
9.285949301956586
 40
9.371680334844333
 40
9.371680334844333
 40
9.371680334844333
 40
9.371680334844333
 10
-148.6384
 20
36.3326
 30
0.0
 10
-148.9460201848806
 20
36.29306388895866
 30
0.0
 10
-149.5753325700742
 20
36.18729694737117
 30
0.0
 10
-150.3347945537847
 20
35.69167091252058
 30
0.0
 10
-150.8758865713904
 20
34.98481330108053
 30
0.0
 10
-151.1303530058202
 20
34.19225720005769
 30
0.0
 10
-150.9580883834698
 20
33.48224426564598
 30
0.0
 10
-150.6167460027077
 20
33.02966142492926
 30
0.0
 10
-150.1735133059137
 20
32.73978574701805
 30
0.0
 10
-149.6499050268051
 20
32.58184532036491
 30
0.0
 10
-149.1717791247165
 20
32.7170667742429
 30
0.0
 10
-148.8812434360918
 20
32.95400547866375
 30
0.0
 10
-148.6894492362227
 20
33.21824704515608
 30
0.0
 10
-148.6126667147935
 20
33.50918023475121
 30
0.0
 10
-148.6758816284896
 20
33.76067018896477
 30
0.0
 10
-148.7997999678792
 20
33.93136339554657
 30
0.0
 10
-148.9755418318119
 20
34.0538155135179
 30
0.0
 10
-149.1867335328437
 20
34.1190891615957
 30
0.0
 10
-149.3860658613949
 20
34.09121238255456
 30
0.0
 10
-149.5171525393334
 20
33.99995217200037
 30
0.0
 10
-149.5985855048928
 20
33.8794305705047
 30
0.0
 10
-149.629555669759
 20
33.7420358020498
 30
0.0
 10
-149.576790565229
 20
33.63214023127716
 30
0.0
 10
-149.5066883025187
 20
33.56018686172266
 30
0.0
 10
-149.4056247178846
 20
33.52575013591383
 30
0.0
 10
-149.3055358779821
 20
33.57087406420949
 30
0.0
 10
-149.2367089798287
 20
33.64608960208618
 30
0.0
 10
-149.2208283983909
 20
33.70622366486202
 30
0.0
 10
-149.215
 20
33.7342
 30
0.0
 11
-148.6384
 21
36.3326
 31
0.0
 11
-149.5461
 21
36.1281
 31
0.0
 11
-150.3494
 21
35.6106
 31
0.0
 11
-150.8036
 21
35.0153
 31
0.0
 11
-151.0546
 21
34.1045
 31
0.0
 11
-150.89
 21
33.4357
 31
0.0
 11
-150.607
 21
33.0596
 31
0.0
 11
-150.1855
 21
32.7751
 31
0.0
 11
-149.6097
 21
32.6343
 31
0.0
 11
-149.1513
 21
32.7609
 31
0.0
 11
-148.8739
 21
32.9821
 31
0.0
 11
-148.715
 21
33.2099
 31
0.0
 11
-148.6384
 21
33.5393
 31
0.0
 11
-148.6998
 21
33.7791
 31
0.0
 11
-148.7967
 21
33.9133
 31
0.0
 11
-148.9672
 21
34.036
 31
0.0
 11
-149.215
 21
34.1045
 31
0.0
 11
-149.3898
 21
34.0756
 31
0.0
 11
-149.5133
 21
33.9911
 31
0.0
 11
-149.5898
 21
33.877
 31
0.0
 11
-149.6134
 21
33.7342
 31
0.0
 11
-149.5676
 21
33.629
 31
0.0
 11
-149.503
 21
33.5666
 31
0.0
 11
-149.4138
 21
33.5393
 31
0.0
 11
-149.3051
 21
33.5805
 31
0.0
 11
-149.2416
 21
33.6527
 31
0.0
 11
-149.215
 21
33.7342
 31
0.0
  0
POINT
  5
3F9
330
18
100
AcDbEntity
  8
DEFAULT
 62
     1
100
AcDbPoint
 10
-149.8465
 20
32.6343
 30
0.0
  0
LINE
  5
3FA
330
18
100
AcDbEntity
  8
DEFAULT
100
AcDbLine
 10
-179.8464
 20
-11.4022
 30
0.0
 11
-119.8464
 21
-11.4022
 31
0.0
  0
LINE
  5
3FB
330
18
100
AcDbEntity
  8
DEFAULT
100
AcDbLine
 10
-149.8464
 20
40.5593
 30
0.0
 11
-119.8464
 21
-11.4022
 31
0.0
  0
LINE
  5
3FC
330
18
100
AcDbEntity
  8
DEFAULT
100
AcDbLine
 10
-179.8465
 20
-11.4022
 30
0.0
 11
-149.8464
 21
40.5593
 31
0.0
  0
SOLID
  5
3FD
330
18
100
AcDbEntity
  8
DEFAULT
 62
     3
100
AcDbTrace
 10
-116.4167
 20
-11.5871
 30
0.0
 11
-116.475
 21
-11.5871
 31
0.0
 12
-116.4459
 22
-11.4022
 32
0.0
 13
-116.4459
 23
-11.4022
 33
0.0
  0
SOLID
  5
3FE
330
18
100
AcDbEntity
  8
DEFAULT
 62
     3
100
AcDbTrace
 10
-116.475
 20
-14.4597
 30
0.0
 11
-116.4167
 21
-14.4597
 31
0.0
 12
-116.4459
 22
-14.6447
 32
0.0
 13
-116.4459
 23
-14.6447
 33
0.0
  0
TEXT
  5
3FF
330
18
100
AcDbEntity
  8
DEFAULT
 62
     3
100
AcDbText
 10
-117.6261
 20
-13.5856
 30
0.0
 40
1.2632
  1
3 1/4
  7
ARIAL_BOLD
100
AcDbText
  0
LINE
  5
400
330
18
100
AcDbEntity
  8
DEFAULT
 62
     3
100
AcDbLine
 10
-119.7839
 20
-11.4022
 30
0.0
 11
-116.3209
 21
-11.4022
 31
0.0
  0
LINE
  5
401
330
18
100
AcDbEntity
  8
DEFAULT
 62
     3
100
AcDbLine
 10
-119.7839
 20
-14.6447
 30
0.0
 11
-116.3209
 21
-14.6447
 31
0.0
  0
POINT
  5
402
330
18
100
AcDbEntity
  8
DEFAULT
 62
     1
100
AcDbPoint
 10
-182.7183
 20
-9.7441
 30
0.0
  0
POINT
  5
403
330
18
100
AcDbEntity
  8
DEFAULT
 62
     1
100
AcDbPoint
 10
-116.9746
 20
-9.7441
 30
0.0
  0
POINT
  5
404
330
18
100
AcDbEntity
  8
DEFAULT
 62
     1
100
AcDbPoint
 10
-146.9746
 20
42.2174
 30
0.0
  0
POINT
  5
405
330
18
100
AcDbEntity
  8
DEFAULT
 62
     1
100
AcDbPoint
 10
-152.7182
 20
42.2174
 30
0.0
  0
LINE
  5
406
330
18
100
AcDbEntity
  8
DEFAULT
 62
     3
100
AcDbLine
 10
-182.7183
 20
-9.7441
 30
0.0
 11
-179.8465
 21
-11.4022
 31
0.0
  0
LINE
  5
407
330
18
100
AcDbEntity
  8
DEFAULT
 62
     3
100
AcDbLine
 10
-152.7182
 20
42.2173
 30
0.0
 11
-149.8464
 21
40.5593
 31
0.0
  0
LINE
  5
408
330
18
100
AcDbEntity
  8
DEFAULT
 62
     3
100
AcDbLine
 10
-149.8464
 20
40.5593
 30
0.0
 11
-146.9745
 21
42.2173
 31
0.0
  0
LINE
  5
409
330
18
100
AcDbEntity
  8
DEFAULT
 62
     3
100
AcDbLine
 10
-119.8464
 20
-11.4022
 30
0.0
 11
-116.9745
 21
-9.7441
 31
0.0
  0
SOLID
  5
40A
330
18
100
AcDbEntity
  8
DEFAULT
 62
     3
100
AcDbTrace
 10
-182.651
 20
-9.5677
 30
0.0
 11
-182.6005
 21
-9.600199999999999
 31
0.0
 12
-182.7182
 22
-9.7441
 32
0.0
 13
-182.7182
 23
-9.7441
 33
0.0
  0
SOLID
  5
40B
330
18
100
AcDbEntity
  8
DEFAULT
 62
     3
100
AcDbTrace
 10
-152.7852
 20
42.0408
 30
0.0
 11
-152.8357
 21
42.0733
 31
0.0
 12
-152.7181
 22
42.2172
 32
0.0
 13
-152.7181
 23
42.2172
 33
0.0
  0
TEXT
  5
40C
330
18
100
AcDbEntity
  8
DEFAULT
 62
     3
100
AcDbText
 10
-168.4748
 20
15.8507
 30
0.0
 40
1.2632
  1
60
  7
ARIAL_BOLD
100
AcDbText
  0
LINE
  5
40D
330
18
100
AcDbEntity
  8
DEFAULT
 62
     3
100
AcDbLine
 10
-182.7182
 20
-9.7441
 30
0.0
 11
-168.0811
 21
15.6079
 31
0.0
  0
LINE
  5
40E
330
18
100
AcDbEntity
  8
DEFAULT
 62
     3
100
AcDbLine
 10
-167.0565
 20
17.3827
 30
0.0
 11
-152.7181
 21
42.2172
 31
0.0
  0
SOLID
  5
40F
330
18
100
AcDbEntity
  8
DEFAULT
 62
     3
100
AcDbTrace
 10
-146.8567
 20
42.0734
 30
0.0
 11
-146.9072
 21
42.0409
 31
0.0
 12
-146.9744
 22
42.2173
 32
0.0
 13
-146.9744
 23
42.2173
 33
0.0
  0
SOLID
  5
410
330
18
100
AcDbEntity
  8
DEFAULT
 62
     3
100
AcDbTrace
 10
-117.0921
 20
-9.600199999999999
 30
0.0
 11
-117.0416
 21
-9.5677
 31
0.0
 12
-116.9745
 22
-9.7441
 32
0.0
 13
-116.9745
 23
-9.7441
 33
0.0
  0
TEXT
  5
411
330
18
100
AcDbEntity
  8
DEFAULT
 62
     3
100
AcDbText
 10
-131.1373
 20
12.5727
 30
0.0
 40
1.2632
  1
60
  7
ARIAL_BOLD
100
AcDbText
  0
LINE
  5
412
330
18
100
AcDbEntity
  8
DEFAULT
 62
     3
100
AcDbLine
 10
-146.9744
 20
42.2173
 30
0.0
 11
-130.7436
 21
14.1047
 31
0.0
  0
LINE
  5
413
330
18
100
AcDbEntity
  8
DEFAULT
 62
     3
100
AcDbLine
 10
-129.719
 20
12.3299
 30
0.0
 11
-116.9745
 21
-9.7441
 31
0.0
  0
LINE
  5
414
330
18
100
AcDbEntity
  8
DEFAULT
100
AcDbLine
 10
-179.8463
 20
-16.6447
 30
0.0
 11
-119.8463
 21
-16.6447
 31
0.0
  0
LINE
  5
415
330
18
100
AcDbEntity
  8
DEFAULT
100
AcDbLine
 10
-179.8464
 20
-16.6447
 30
0.0
 11
-179.8464
 21
-11.4022
 31
0.0
  0
LINE
  5
416
330
18
100
AcDbEntity
  8
DEFAULT
100
AcDbLine
 10
-119.8464
 20
-16.6447
 30
0.0
 11
-119.8464
 21
-11.4022
 31
0.0
  0
SOLID
  5
417
330
18
100
AcDbEntity
  8
DEFAULT
 62
     3
100
AcDbTrace
 10
-112.4574
 20
-11.5871
 30
0.0
 11
-112.5157
 21
-11.5871
 31
0.0
 12
-112.4866
 22
-11.4022
 32
0.0
 13
-112.4866
 23
-11.4022
 33
0.0
  0
SOLID
  5
418
330
18
100
AcDbEntity
  8
DEFAULT
 62
     3
100
AcDbTrace
 10
-112.5157
 20
-16.4597
 30
0.0
 11
-112.4574
 21
-16.4597
 31
0.0
 12
-112.4866
 22
-16.6447
 32
0.0
 13
-112.4866
 23
-16.6447
 33
0.0
  0
LINE
  5
419
330
18
100
AcDbEntity
  8
DEFAULT
 62
     3
100
AcDbLine
 10
-112.4866
 20
-11.875
 30
0.0
 11
-112.4866
 21
-11.4022
 31
0.0
  0
LINE
  5
41A
330
18
100
AcDbEntity
  8
DEFAULT
 62
     3
100
AcDbLine
 10
-112.4866
 20
-16.6447
 30
0.0
 11
-112.4866
 21
-15.6
 31
0.0
  0
TEXT
  5
41B
330
18
100
AcDbEntity
  8
DEFAULT
 62
     3
100
AcDbText
 10
-113.661
 20
-14.3821
 30
0.0
 40
1.2632
  1
5 1/4
  7
ARIAL_BOLD
100
AcDbText
  0
LINE
  5
41C
330
18
100
AcDbEntity
  8
DEFAULT
 62
     3
100
AcDbLine
 10
-119.7839
 20
-11.4022
 30
0.0
 11
-112.3616
 21
-11.4022
 31
0.0
  0
LINE
  5
41D
330
18
100
AcDbEntity
  8
DEFAULT
 62
     3
100
AcDbLine
 10
-119.7839
 20
-16.6447
 30
0.0
 11
-112.3616
 21
-16.6447
 31
0.0
  0
LINE
  5
41E
330
18
100
AcDbEntity
  8
DEFAULT
 62
     6
100
AcDbLine
 10
-193.6477
 20
-14.6447
 30
0.0
 11
-179.8464
 21
-14.6447
 31
0.0
  0
TEXT
  5
41F
330
18
100
AcDbEntity
  8
DEFAULT
100
AcDbText
 10
-109.7918
 20
-13.9849
 30
0.0
 40
1.2632
  1
ground level
  7
ARIAL
100
AcDbText
  0
LINE
  5
420
330
18
100
AcDbEntity
  8
DEFAULT
 62
     6
100
AcDbLine
 10
-195.8946
 20
-14.6447
 30
0.0
 11
-119.8464
 21
-14.6447
 31
0.0
  0
SOLID
  5
421
330
18
100
AcDbEntity
  8
DEFAULT
 62
     3
100
AcDbTrace
 10
-151.1613
 20
-18.79
 30
0.0
 11
-151.1613
 21
-18.8551
 31
0.0
 12
-151.3463
 22
-18.8226
 32
0.0
 13
-151.3463
 23
-18.8226
 33
0.0
  0
SOLID
  5
422
330
18
100
AcDbEntity
  8
DEFAULT
 62
     3
100
AcDbTrace
 10
-148.5314
 20
-18.8551
 30
0.0
 11
-148.5314
 21
-18.79
 31
0.0
 12
-148.3465
 22
-18.8226
 32
0.0
 13
-148.3465
 23
-18.8226
 33
0.0
  0
LINE
  5
423
330
18
100
AcDbEntity
  8
DEFAULT
 62
     3
100
AcDbLine
 10
-151.3463
 20
-18.8226
 30
0.0
 11
-150.2836
 21
-18.8226
 31
0.0
  0
LINE
  5
424
330
18
100
AcDbEntity
  8
DEFAULT
 62
     3
100
AcDbLine
 10
-149.3144
 20
-18.8226
 30
0.0
 11
-148.3465
 21
-18.8226
 31
0.0
  0
TEXT
  5
425
330
18
100
AcDbEntity
  8
DEFAULT
 62
     3
100
AcDbText
 10
-150.221
 20
-19.4672
 30
0.0
 40
1.2632
  1
3
  7
ARIAL_BOLD
100
AcDbText
  0
LINE
  5
426
330
18
100
AcDbEntity
  8
DEFAULT
 62
     3
100
AcDbLine
 10
-151.3463
 20
-18.9476
 30
0.0
 11
-151.3463
 21
5.8557
 31
0.0
  0
LINE
  5
427
330
18
100
AcDbEntity
  8
DEFAULT
 62
     3
100
AcDbLine
 10
-148.3465
 20
-18.9476
 30
0.0
 11
-148.3465
 21
5.8557
 31
0.0
  0
SOLID
  5
428
330
18
100
AcDbEntity
  8
DEFAULT
 62
     3
100
AcDbTrace
 10
-154.1484
 20
-21.2526
 30
0.0
 11
-154.1484
 21
-21.3177
 31
0.0
 12
-154.3334
 22
-21.2852
 32
0.0
 13
-154.3334
 23
-21.2852
 33
0.0
  0
SOLID
  5
429
330
18
100
AcDbEntity
  8
DEFAULT
 62
     3
100
AcDbTrace
 10
-145.5313
 20
-21.3177
 30
0.0
 11
-145.5313
 21
-21.2526
 31
0.0
 12
-145.3464
 22
-21.2852
 32
0.0
 13
-145.3464
 23
-21.2852
 33
0.0
  0
LINE
  5
42A
330
18
100
AcDbEntity
  8
DEFAULT
 62
     3
100
AcDbLine
 10
-154.3334
 20
-21.2852
 30
0.0
 11
-150.3351
 21
-21.2852
 31
0.0
  0
LINE
  5
42B
330
18
100
AcDbEntity
  8
DEFAULT
 62
     3
100
AcDbLine
 10
-149.3611
 20
-21.2852
 30
0.0
 11
-145.3464
 21
-21.2852
 31
0.0
  0
TEXT
  5
42C
330
18
100
AcDbEntity
  8
DEFAULT
 62
     3
100
AcDbText
 10
-150.2725
 20
-21.9298
 30
0.0
 40
1.2632
  1
9
  7
ARIAL_BOLD
100
AcDbText
  0
LINE
  5
42D
330
18
100
AcDbEntity
  8
DEFAULT
 62
     3
100
AcDbLine
 10
-154.3334
 20
-21.4102
 30
0.0
 11
-154.3334
 21
5.8557
 31
0.0
  0
LINE
  5
42E
330
18
100
AcDbEntity
  8
DEFAULT
 62
     3
100
AcDbLine
 10
-145.3464
 20
-21.4102
 30
0.0
 11
-145.3464
 21
5.8557
 31
0.0
  0
POINT
  5
42F
330
18
100
AcDbEntity
  8
DEFAULT
 62
     1
100
AcDbPoint
 10
-149.8464
 20
-16.6447
 30
0.0
  0
SOLID
  5
430
330
18
100
AcDbEntity
  8
DEFAULT
 62
     3
100
AcDbTrace
 10
-162.9298
 20
-24.3193
 30
0.0
 11
-162.9298
 21
-24.3844
 31
0.0
 12
-163.1148
 22
-24.3519
 32
0.0
 13
-163.1148
 23
-24.3519
 33
0.0
  0
SOLID
  5
431
330
18
100
AcDbEntity
  8
DEFAULT
 62
     3
100
AcDbTrace
 10
-136.7636
 20
-24.3844
 30
0.0
 11
-136.7636
 21
-24.3193
 31
0.0
 12
-136.5787
 22
-24.3519
 32
0.0
 13
-136.5787
 23
-24.3519
 33
0.0
  0
LINE
  5
432
330
18
100
AcDbEntity
  8
DEFAULT
 62
     3
100
AcDbLine
 10
-163.1148
 20
-24.3519
 30
0.0
 11
-151.833
 21
-24.3519
 31
0.0
  0
LINE
  5
433
330
18
100
AcDbEntity
  8
DEFAULT
 62
     3
100
AcDbLine
 10
-147.3726
 20
-24.3519
 30
0.0
 11
-136.5787
 21
-24.3519
 31
0.0
  0
TEXT
  5
434
330
18
100
AcDbEntity
  8
DEFAULT
 62
     3
100
AcDbText
 10
-151.7704
 20
-24.9965
 30
0.0
 40
1.2632
  1
26 9/16
  7
ARIAL_BOLD
100
AcDbText
  0
LINE
  5
435
330
18
100
AcDbEntity
  8
DEFAULT
 62
     3
100
AcDbLine
 10
-163.1148
 20
-24.4769
 30
0.0
 11
-163.1148
 21
-1.8046
 31
0.0
  0
LINE
  5
436
330
18
100
AcDbEntity
  8
DEFAULT
 62
     3
100
AcDbLine
 10
-136.5787
 20
-24.4769
 30
0.0
 11
-136.5787
 21
-1.8046
 31
0.0
  0
SOLID
  5
437
330
18
100
AcDbEntity
  8
DEFAULT
 62
     3
100
AcDbTrace
 10
-168.4032
 20
-28.4942
 30
0.0
 11
-168.4032
 21
-28.5593
 31
0.0
 12
-168.5882
 22
-28.5268
 32
0.0
 13
-168.5882
 23
-28.5268
 33
0.0
  0
SOLID
  5
438
330
18
100
AcDbEntity
  8
DEFAULT
 62
     3
100
AcDbTrace
 10
-131.29
 20
-28.5593
 30
0.0
 11
-131.29
 21
-28.4942
 31
0.0
 12
-131.1051
 22
-28.5268
 32
0.0
 13
-131.1051
 23
-28.5268
 33
0.0
  0
LINE
  5
439
330
18
100
AcDbEntity
  8
DEFAULT
 62
     3
100
AcDbLine
 10
-168.5882
 20
-28.5268
 30
0.0
 11
-151.3625
 21
-28.5268
 31
0.0
  0
LINE
  5
43A
330
18
100
AcDbEntity
  8
DEFAULT
 62
     3
100
AcDbLine
 10
-147.9379
 20
-28.5268
 30
0.0
 11
-131.1051
 21
-28.5268
 31
0.0
  0
TEXT
  5
43B
330
18
100
AcDbEntity
  8
DEFAULT
 62
     3
100
AcDbText
 10
-151.2999
 20
-29.1714
 30
0.0
 40
1.2632
  1
37 1/2
  7
ARIAL_BOLD
100
AcDbText
  0
LINE
  5
43C
330
18
100
AcDbEntity
  8
DEFAULT
 62
     3
100
AcDbLine
 10
-168.5882
 20
-28.6518
 30
0.0
 11
-168.5882
 21
-4.9647
 31
0.0
  0
LINE
  5
43D
330
18
100
AcDbEntity
  8
DEFAULT
 62
     3
100
AcDbLine
 10
-131.1051
 20
-28.6518
 30
0.0
 11
-131.1051
 21
-4.9647
 31
0.0
  0
SOLID
  5
43E
330
18
100
AcDbEntity
  8
DEFAULT
 62
     3
100
AcDbTrace
 10
-171.8672
 20
-32.2924
 30
0.0
 11
-171.8672
 21
-32.3575
 31
0.0
 12
-172.0522
 22
-32.325
 32
0.0
 13
-172.0522
 23
-32.325
 33
0.0
  0
SOLID
  5
43F
330
18
100
AcDbEntity
  8
DEFAULT
 62
     3
100
AcDbTrace
 10
-127.8257
 20
-32.3575
 30
0.0
 11
-127.8257
 21
-32.2924
 31
0.0
 12
-127.6408
 22
-32.325
 32
0.0
 13
-127.6408
 23
-32.325
 33
0.0
  0
LINE
  5
440
330
18
100
AcDbEntity
  8
DEFAULT
 62
     3
100
AcDbLine
 10
-172.0522
 20
-32.325
 30
0.0
 11
-152.0406
 21
-32.325
 31
0.0
  0
LINE
  5
441
330
18
100
AcDbEntity
  8
DEFAULT
 62
     3
100
AcDbLine
 10
-147.5686
 20
-32.325
 30
0.0
 11
-127.6408
 21
-32.325
 31
0.0
  0
TEXT
  5
442
330
18
100
AcDbEntity
  8
DEFAULT
 62
     3
100
AcDbText
 10
-151.978
 20
-32.9696
 30
0.0
 40
1.2632
  1
44 7/16
  7
ARIAL_BOLD
100
AcDbText
  0
LINE
  5
443
330
18
100
AcDbEntity
  8
DEFAULT
 62
     3
100
AcDbLine
 10
-172.0522
 20
-32.45
 30
0.0
 11
-172.0522
 21
-6.9647
 31
0.0
  0
LINE
  5
444
330
18
100
AcDbEntity
  8
DEFAULT
 62
     3
100
AcDbLine
 10
-127.6408
 20
-32.45
 30
0.0
 11
-127.6408
 21
-6.9647
 31
0.0
  0
SOLID
  5
445
330
18
100
AcDbEntity
  8
DEFAULT
 62
     3
100
AcDbTrace
 10
-179.6614
 20
-36.894
 30
0.0
 11
-179.6614
 21
-36.9591
 31
0.0
 12
-179.8464
 22
-36.9266
 32
0.0
 13
-179.8464
 23
-36.9266
 33
0.0
  0
SOLID
  5
446
330
18
100
AcDbEntity
  8
DEFAULT
 62
     3
100
AcDbTrace
 10
-120.0313
 20
-36.9591
 30
0.0
 11
-120.0313
 21
-36.894
 31
0.0
 12
-119.8464
 22
-36.9266
 32
0.0
 13
-119.8464
 23
-36.9266
 33
0.0
  0
LINE
  5
447
330
18
100
AcDbEntity
  8
DEFAULT
 62
     3
100
AcDbLine
 10
-179.8464
 20
-36.9266
 30
0.0
 11
-149.7695
 21
-36.9266
 31
0.0
  0
LINE
  5
448
330
18
100
AcDbEntity
  8
DEFAULT
 62
     3
100
AcDbLine
 10
-147.8323
 20
-36.9266
 30
0.0
 11
-119.8464
 21
-36.9266
 31
0.0
  0
TEXT
  5
449
330
18
100
AcDbEntity
  8
DEFAULT
 62
     3
100
AcDbText
 10
-149.7069
 20
-37.5712
 30
0.0
 40
1.2632
  1
60
  7
ARIAL_BOLD
100
AcDbText
  0
LINE
  5
44A
330
18
100
AcDbEntity
  8
DEFAULT
 62
     3
100
AcDbLine
 10
-179.8464
 20
-37.0516
 30
0.0
 11
-179.8464
 21
-16.7072
 31
0.0
  0
LINE
  5
44B
330
18
100
AcDbEntity
  8
DEFAULT
 62
     3
100
AcDbLine
 10
-119.8464
 20
-37.0516
 30
0.0
 11
-119.8464
 21
-16.7072
 31
0.0
  0
TEXT
  5
44C
330
18
100
AcDbEntity
  8
DEFAULT
100
AcDbText
 10
-161.7478
 20
45.5022
 30
0.0
 40
2.6316
  1
NORTH FACE
  7
ARIAL_BOLD
100
AcDbText
  0
SOLID
  5
44D
330
18
100
AcDbEntity
  8
DEFAULT
 62
     3
100
AcDbTrace
 10
-106.8787
 20
40.3743
 30
0.0
 11
-106.937
 21
40.3743
 31
0.0
 12
-106.9079
 22
40.5593
 32
0.0
 13
-106.9079
 23
40.5593
 33
0.0
  0
SOLID
  5
44E
330
18
100
AcDbEntity
  8
DEFAULT
 62
     3
100
AcDbTrace
 10
-106.937
 20
-16.4597
 30
0.0
 11
-106.8787
 21
-16.4597
 31
0.0
 12
-106.9079
 22
-16.6447
 32
0.0
 13
-106.9079
 23
-16.6447
 33
0.0
  0
LINE
  5
44F
330
18
100
AcDbEntity
  8
DEFAULT
 62
     3
100
AcDbLine
 10
-106.9079
 20
14.8098
 30
0.0
 11
-106.9079
 21
40.5593
 31
0.0
  0
LINE
  5
450
330
18
100
AcDbEntity
  8
DEFAULT
 62
     3
100
AcDbLine
 10
-106.9079
 20
-16.6447
 30
0.0
 11
-106.9079
 21
11.0848
 31
0.0
  0
TEXT
  5
451
330
18
100
AcDbEntity
  8
DEFAULT
 62
     3
100
AcDbText
 10
-109.0586
 20
12.3027
 30
0.0
 40
1.2632
  1
57 3/16
  7
ARIAL_BOLD
100
AcDbText
  0
LINE
  5
452
330
18
100
AcDbEntity
  8
DEFAULT
 62
     3
100
AcDbLine
 10
-149.7839
 20
40.5593
 30
0.0
 11
-106.7829
 21
40.5593
 31
0.0
  0
LINE
  5
453
330
18
100
AcDbEntity
  8
DEFAULT
 62
     3
100
AcDbLine
 10
-119.7839
 20
-16.6447
 30
0.0
 11
-106.7829
 21
-16.6447
 31
0.0
  0
TEXT
  5
454
330
18
100
AcDbEntity
  8
DEFAULT
100
AcDbText
 10
-79.3137
 20
42.2597
 30
0.0
 40
2.6316
  1
SOUTH FACE
  7
ARIAL_BOLD
100
AcDbText
  0
LINE
  5
455
330
18
100
AcDbEntity
  8
DEFAULT
100
AcDbLine
 10
-134.3834
 20
32.3163
 30
0.0
 11
-122.3834
 21
32.3163
 31
0.0
  0
LINE
  5
456
330
18
100
AcDbEntity
  8
DEFAULT
100
AcDbLine
 10
-134.3834
 20
32.3163
 30
0.0
 11
-134.3834
 21
33.706
 31
0.0
  0
LINE
  5
457
330
18
100
AcDbEntity
  8
DEFAULT
100
AcDbLine
 10
-133.3834
 20
32.3163
 30
0.0
 11
-133.3834
 21
33.706
 31
0.0
  0
LINE
  5
458
330
18
100
AcDbEntity
  8
DEFAULT
100
AcDbLine
 10
-132.3834
 20
32.3163
 30
0.0
 11
-132.3834
 21
33.706
 31
0.0
  0
LINE
  5
459
330
18
100
AcDbEntity
  8
DEFAULT
100
AcDbLine
 10
-131.3834
 20
32.3163
 30
0.0
 11
-131.3834
 21
33.706
 31
0.0
  0
LINE
  5
45A
330
18
100
AcDbEntity
  8
DEFAULT
100
AcDbLine
 10
-130.3834
 20
32.3163
 30
0.0
 11
-130.3834
 21
33.706
 31
0.0
  0
LINE
  5
45B
330
18
100
AcDbEntity
  8
DEFAULT
100
AcDbLine
 10
-129.3834
 20
32.3163
 30
0.0
 11
-129.3834
 21
33.706
 31
0.0
  0
LINE
  5
45C
330
18
100
AcDbEntity
  8
DEFAULT
100
AcDbLine
 10
-128.3834
 20
32.3163
 30
0.0
 11
-128.3834
 21
33.706
 31
0.0
  0
LINE
  5
45D
330
18
100
AcDbEntity
  8
DEFAULT
100
AcDbLine
 10
-127.3834
 20
32.3163
 30
0.0
 11
-127.3834
 21
33.706
 31
0.0
  0
LINE
  5
45E
330
18
100
AcDbEntity
  8
DEFAULT
100
AcDbLine
 10
-126.3834
 20
32.3163
 30
0.0
 11
-126.3834
 21
33.706
 31
0.0
  0
LINE
  5
45F
330
18
100
AcDbEntity
  8
DEFAULT
100
AcDbLine
 10
-125.3834
 20
32.3163
 30
0.0
 11
-125.3834
 21
33.706
 31
0.0
  0
LINE
  5
460
330
18
100
AcDbEntity
  8
DEFAULT
100
AcDbLine
 10
-124.3834
 20
32.3163
 30
0.0
 11
-124.3834
 21
33.706
 31
0.0
  0
LINE
  5
461
330
18
100
AcDbEntity
  8
DEFAULT
100
AcDbLine
 10
-123.3834
 20
32.3163
 30
0.0
 11
-123.3834
 21
33.706
 31
0.0
  0
LINE
  5
462
330
18
100
AcDbEntity
  8
DEFAULT
100
AcDbLine
 10
-122.3834
 20
32.3163
 30
0.0
 11
-122.3834
 21
33.706
 31
0.0
  0
POINT
  5
463
330
18
100
AcDbEntity
  8
DEFAULT
 62
     1
100
AcDbPoint
 10
-128.3834
 20
32.3163
 30
0.0
  0
TEXT
  5
464
330
18
100
AcDbEntity
  8
DEFAULT
100
AcDbText
 10
-134.181
 20
30.1601
 30
0.0
 40
1.1368
  1
Scale: 12 inches
  7
ARIAL
100
AcDbText
  0
TEXT
  5
465
330
18
100
AcDbEntity
  8
DEFAULT
100
AcDbText
 10
-191.6601
 20
-13.5247
 30
0.0
 40
1.2632
  1
ground level
  7
ARIAL
100
AcDbText
  0
LINE
  5
466
330
18
100
AcDbEntity
  8
DEFAULT
100
AcDbLine
 10
-97.4435
 20
-19.8872
 30
0.0
 11
-37.4435
 21
-19.8872
 31
0.0
  0
LINE
  5
467
330
18
100
AcDbEntity
  8
DEFAULT
100
AcDbLine
 10
-97.4435
 20
-19.8872
 30
0.0
 11
-97.4435
 21
-14.6447
 31
0.0
  0
LINE
  5
468
330
18
100
AcDbEntity
  8
DEFAULT
100
AcDbLine
 10
-37.4435
 20
-19.8872
 30
0.0
 11
-37.4435
 21
-14.6447
 31
0.0
  0
SOLID
  5
469
330
18
100
AcDbEntity
  8
DEFAULT
 62
     3
100
AcDbTrace
 10
-34.0139
 20
-14.8296
 30
0.0
 11
-34.0722
 21
-14.8296
 31
0.0
 12
-34.0431
 22
-14.6447
 32
0.0
 13
-34.0431
 23
-14.6447
 33
0.0
  0
SOLID
  5
46A
330
18
100
AcDbEntity
  8
DEFAULT
 62
     3
100
AcDbTrace
 10
-34.0722
 20
-17.7022
 30
0.0
 11
-34.0139
 21
-17.7022
 31
0.0
 12
-34.0431
 22
-17.8872
 32
0.0
 13
-34.0431
 23
-17.8872
 33
0.0
  0
TEXT
  5
46B
330
18
100
AcDbEntity
  8
DEFAULT
 62
     3
100
AcDbText
 10
-35.2233
 20
-16.8281
 30
0.0
 40
1.2632
  1
3 1/4
  7
ARIAL_BOLD
100
AcDbText
  0
LINE
  5
46C
330
18
100
AcDbEntity
  8
DEFAULT
 62
     3
100
AcDbLine
 10
-37.3811
 20
-14.6447
 30
0.0
 11
-33.9181
 21
-14.6447
 31
0.0
  0
LINE
  5
46D
330
18
100
AcDbEntity
  8
DEFAULT
 62
     3
100
AcDbLine
 10
-37.3811
 20
-17.8872
 30
0.0
 11
-33.9181
 21
-17.8872
 31
0.0
  0
POINT
  5
46E
330
18
100
AcDbEntity
  8
DEFAULT
 62
     1
100
AcDbPoint
 10
-34.5718
 20
-12.9866
 30
0.0
  0
POINT
  5
46F
330
18
100
AcDbEntity
  8
DEFAULT
 62
     1
100
AcDbPoint
 10
-64.5718
 20
38.9749
 30
0.0
  0
POINT
  5
470
330
18
100
AcDbEntity
  8
DEFAULT
 62
     1
100
AcDbPoint
 10
-70.3154
 20
38.9749
 30
0.0
  0
LINE
  5
471
330
18
100
AcDbEntity
  8
DEFAULT
 62
     3
100
AcDbLine
 10
-70.3154
 20
38.9748
 30
0.0
 11
-67.4436
 21
37.3168
 31
0.0
  0
LINE
  5
472
330
18
100
AcDbEntity
  8
DEFAULT
 62
     3
100
AcDbLine
 10
-67.4436
 20
37.3168
 30
0.0
 11
-64.57170000000001
 21
38.9748
 31
0.0
  0
LINE
  5
473
330
18
100
AcDbEntity
  8
DEFAULT
 62
     3
100
AcDbLine
 10
-37.4436
 20
-14.6447
 30
0.0
 11
-34.5717
 21
-12.9866
 31
0.0
  0
SOLID
  5
474
330
18
100
AcDbEntity
  8
DEFAULT
 62
     3
100
AcDbTrace
 10
-100.2482
 20
-12.8102
 30
0.0
 11
-100.1977
 21
-12.8427
 31
0.0
 12
-100.3154
 22
-12.9866
 32
0.0
 13
-100.3154
 23
-12.9866
 33
0.0
  0
SOLID
  5
475
330
18
100
AcDbEntity
  8
DEFAULT
 62
     3
100
AcDbTrace
 10
-70.3824
 20
38.7983
 30
0.0
 11
-70.4329
 21
38.8308
 31
0.0
 12
-70.31529999999999
 22
38.9747
 32
0.0
 13
-70.31529999999999
 23
38.9747
 33
0.0
  0
TEXT
  5
476
330
18
100
AcDbEntity
  8
DEFAULT
 62
     3
100
AcDbText
 10
-86.072
 20
12.6082
 30
0.0
 40
1.2632
  1
60
  7
ARIAL_BOLD
100
AcDbText
  0
LINE
  5
477
330
18
100
AcDbEntity
  8
DEFAULT
 62
     3
100
AcDbLine
 10
-100.3154
 20
-12.9866
 30
0.0
 11
-85.67829999999999
 21
12.3654
 31
0.0
  0
LINE
  5
478
330
18
100
AcDbEntity
  8
DEFAULT
 62
     3
100
AcDbLine
 10
-84.6537
 20
14.1402
 30
0.0
 11
-70.31529999999999
 21
38.9747
 31
0.0
  0
SOLID
  5
479
330
18
100
AcDbEntity
  8
DEFAULT
 62
     3
100
AcDbTrace
 10
-64.4539
 20
38.8309
 30
0.0
 11
-64.5044
 21
38.7984
 31
0.0
 12
-64.5716
 22
38.9748
 32
0.0
 13
-64.5716
 23
38.9748
 33
0.0
  0
SOLID
  5
47A
330
18
100
AcDbEntity
  8
DEFAULT
 62
     3
100
AcDbTrace
 10
-34.6893
 20
-12.8427
 30
0.0
 11
-34.6388
 21
-12.8102
 31
0.0
 12
-34.5717
 22
-12.9866
 32
0.0
 13
-34.5717
 23
-12.9866
 33
0.0
  0
TEXT
  5
47B
330
18
100
AcDbEntity
  8
DEFAULT
 62
     3
100
AcDbText
 10
-48.7345
 20
9.3302
 30
0.0
 40
1.2632
  1
60
  7
ARIAL_BOLD
100
AcDbText
  0
LINE
  5
47C
330
18
100
AcDbEntity
  8
DEFAULT
 62
     3
100
AcDbLine
 10
-64.5716
 20
38.9748
 30
0.0
 11
-48.3408
 21
10.8622
 31
0.0
  0
LINE
  5
47D
330
18
100
AcDbEntity
  8
DEFAULT
 62
     3
100
AcDbLine
 10
-47.3162
 20
9.087400000000001
 30
0.0
 11
-34.5717
 21
-12.9866
 31
0.0
  0
SOLID
  5
47E
330
18
100
AcDbEntity
  8
DEFAULT
 62
     3
100
AcDbTrace
 10
-30.0546
 20
-14.8296
 30
0.0
 11
-30.1129
 21
-14.8296
 31
0.0
 12
-30.0838
 22
-14.6447
 32
0.0
 13
-30.0838
 23
-14.6447
 33
0.0
  0
SOLID
  5
47F
330
18
100
AcDbEntity
  8
DEFAULT
 62
     3
100
AcDbTrace
 10
-30.1129
 20
-19.7022
 30
0.0
 11
-30.0546
 21
-19.7022
 31
0.0
 12
-30.0838
 22
-19.8872
 32
0.0
 13
-30.0838
 23
-19.8872
 33
0.0
  0
LINE
  5
480
330
18
100
AcDbEntity
  8
DEFAULT
 62
     3
100
AcDbLine
 10
-30.0838
 20
-15.1175
 30
0.0
 11
-30.0838
 21
-14.6447
 31
0.0
  0
LINE
  5
481
330
18
100
AcDbEntity
  8
DEFAULT
 62
     3
100
AcDbLine
 10
-30.0838
 20
-19.8872
 30
0.0
 11
-30.0838
 21
-18.8425
 31
0.0
  0
TEXT
  5
482
330
18
100
AcDbEntity
  8
DEFAULT
 62
     3
100
AcDbText
 10
-31.2582
 20
-17.6246
 30
0.0
 40
1.2632
  1
5 1/4
  7
ARIAL_BOLD
100
AcDbText
  0
LINE
  5
483
330
18
100
AcDbEntity
  8
DEFAULT
 62
     3
100
AcDbLine
 10
-37.3811
 20
-14.6447
 30
0.0
 11
-29.9588
 21
-14.6447
 31
0.0
  0
LINE
  5
484
330
18
100
AcDbEntity
  8
DEFAULT
 62
     3
100
AcDbLine
 10
-37.3811
 20
-19.8872
 30
0.0
 11
-29.9588
 21
-19.8872
 31
0.0
  0
SOLID
  5
485
330
18
100
AcDbEntity
  8
DEFAULT
 62
     3
100
AcDbTrace
 10
-68.7585
 20
-22.0325
 30
0.0
 11
-68.7585
 21
-22.0976
 31
0.0
 12
-68.9435
 22
-22.0651
 32
0.0
 13
-68.9435
 23
-22.0651
 33
0.0
  0
SOLID
  5
486
330
18
100
AcDbEntity
  8
DEFAULT
 62
     3
100
AcDbTrace
 10
-66.12860000000001
 20
-22.0976
 30
0.0
 11
-66.12860000000001
 21
-22.0325
 31
0.0
 12
-65.94370000000001
 22
-22.0651
 32
0.0
 13
-65.94370000000001
 23
-22.0651
 33
0.0
  0
LINE
  5
487
330
18
100
AcDbEntity
  8
DEFAULT
 62
     3
100
AcDbLine
 10
-68.9435
 20
-22.0651
 30
0.0
 11
-67.88079999999999
 21
-22.0651
 31
0.0
  0
LINE
  5
488
330
18
100
AcDbEntity
  8
DEFAULT
 62
     3
100
AcDbLine
 10
-66.91160000000001
 20
-22.0651
 30
0.0
 11
-65.94370000000001
 21
-22.0651
 31
0.0
  0
TEXT
  5
489
330
18
100
AcDbEntity
  8
DEFAULT
 62
     3
100
AcDbText
 10
-67.8182
 20
-22.7097
 30
0.0
 40
1.2632
  1
3
  7
ARIAL_BOLD
100
AcDbText
  0
LINE
  5
48A
330
18
100
AcDbEntity
  8
DEFAULT
 62
     3
100
AcDbLine
 10
-68.9435
 20
-22.1901
 30
0.0
 11
-68.9435
 21
2.6132
 31
0.0
  0
LINE
  5
48B
330
18
100
AcDbEntity
  8
DEFAULT
 62
     3
100
AcDbLine
 10
-65.94370000000001
 20
-22.1901
 30
0.0
 11
-65.94370000000001
 21
2.6132
 31
0.0
  0
SOLID
  5
48C
330
18
100
AcDbEntity
  8
DEFAULT
 62
     3
100
AcDbTrace
 10
-71.7456
 20
-24.4951
 30
0.0
 11
-71.7456
 21
-24.5602
 31
0.0
 12
-71.9306
 22
-24.5277
 32
0.0
 13
-71.9306
 23
-24.5277
 33
0.0
  0
SOLID
  5
48D
330
18
100
AcDbEntity
  8
DEFAULT
 62
     3
100
AcDbTrace
 10
-63.1285
 20
-24.5602
 30
0.0
 11
-63.1285
 21
-24.4951
 31
0.0
 12
-62.9436
 22
-24.5277
 32
0.0
 13
-62.9436
 23
-24.5277
 33
0.0
  0
LINE
  5
48E
330
18
100
AcDbEntity
  8
DEFAULT
 62
     3
100
AcDbLine
 10
-71.9306
 20
-24.5277
 30
0.0
 11
-67.9323
 21
-24.5277
 31
0.0
  0
LINE
  5
48F
330
18
100
AcDbEntity
  8
DEFAULT
 62
     3
100
AcDbLine
 10
-66.95829999999999
 20
-24.5277
 30
0.0
 11
-62.9436
 21
-24.5277
 31
0.0
  0
TEXT
  5
490
330
18
100
AcDbEntity
  8
DEFAULT
 62
     3
100
AcDbText
 10
-67.8697
 20
-25.1723
 30
0.0
 40
1.2632
  1
9
  7
ARIAL_BOLD
100
AcDbText
  0
LINE
  5
491
330
18
100
AcDbEntity
  8
DEFAULT
 62
     3
100
AcDbLine
 10
-71.9306
 20
-24.6527
 30
0.0
 11
-71.9306
 21
2.6132
 31
0.0
  0
LINE
  5
492
330
18
100
AcDbEntity
  8
DEFAULT
 62
     3
100
AcDbLine
 10
-62.9436
 20
-24.6527
 30
0.0
 11
-62.9436
 21
2.6132
 31
0.0
  0
SOLID
  5
493
330
18
100
AcDbEntity
  8
DEFAULT
 62
     3
100
AcDbTrace
 10
-80.527
 20
-27.5618
 30
0.0
 11
-80.527
 21
-27.6269
 31
0.0
 12
-80.712
 22
-27.5944
 32
0.0
 13
-80.712
 23
-27.5944
 33
0.0
  0
SOLID
  5
494
330
18
100
AcDbEntity
  8
DEFAULT
 62
     3
100
AcDbTrace
 10
-54.3608
 20
-27.6269
 30
0.0
 11
-54.3608
 21
-27.5618
 31
0.0
 12
-54.1759
 22
-27.5944
 32
0.0
 13
-54.1759
 23
-27.5944
 33
0.0
  0
LINE
  5
495
330
18
100
AcDbEntity
  8
DEFAULT
 62
     3
100
AcDbLine
 10
-80.712
 20
-27.5944
 30
0.0
 11
-69.4302
 21
-27.5944
 31
0.0
  0
LINE
  5
496
330
18
100
AcDbEntity
  8
DEFAULT
 62
     3
100
AcDbLine
 10
-64.96980000000001
 20
-27.5944
 30
0.0
 11
-54.1759
 21
-27.5944
 31
0.0
  0
TEXT
  5
497
330
18
100
AcDbEntity
  8
DEFAULT
 62
     3
100
AcDbText
 10
-69.3676
 20
-28.239
 30
0.0
 40
1.2632
  1
26 9/16
  7
ARIAL_BOLD
100
AcDbText
  0
LINE
  5
498
330
18
100
AcDbEntity
  8
DEFAULT
 62
     3
100
AcDbLine
 10
-80.712
 20
-27.7194
 30
0.0
 11
-80.712
 21
-5.0471
 31
0.0
  0
LINE
  5
499
330
18
100
AcDbEntity
  8
DEFAULT
 62
     3
100
AcDbLine
 10
-54.1759
 20
-27.7194
 30
0.0
 11
-54.1759
 21
-5.0471
 31
0.0
  0
SOLID
  5
49A
330
18
100
AcDbEntity
  8
DEFAULT
 62
     3
100
AcDbTrace
 10
-86.0004
 20
-31.7367
 30
0.0
 11
-86.0004
 21
-31.8018
 31
0.0
 12
-86.1854
 22
-31.7693
 32
0.0
 13
-86.1854
 23
-31.7693
 33
0.0
  0
SOLID
  5
49B
330
18
100
AcDbEntity
  8
DEFAULT
 62
     3
100
AcDbTrace
 10
-48.8872
 20
-31.8018
 30
0.0
 11
-48.8872
 21
-31.7367
 31
0.0
 12
-48.7023
 22
-31.7693
 32
0.0
 13
-48.7023
 23
-31.7693
 33
0.0
  0
LINE
  5
49C
330
18
100
AcDbEntity
  8
DEFAULT
 62
     3
100
AcDbLine
 10
-86.1854
 20
-31.7693
 30
0.0
 11
-68.9597
 21
-31.7693
 31
0.0
  0
LINE
  5
49D
330
18
100
AcDbEntity
  8
DEFAULT
 62
     3
100
AcDbLine
 10
-65.5351
 20
-31.7693
 30
0.0
 11
-48.7023
 21
-31.7693
 31
0.0
  0
TEXT
  5
49E
330
18
100
AcDbEntity
  8
DEFAULT
 62
     3
100
AcDbText
 10
-68.8971
 20
-32.4139
 30
0.0
 40
1.2632
  1
37 1/2
  7
ARIAL_BOLD
100
AcDbText
  0
LINE
  5
49F
330
18
100
AcDbEntity
  8
DEFAULT
 62
     3
100
AcDbLine
 10
-86.1854
 20
-31.8943
 30
0.0
 11
-86.1854
 21
-8.2072
 31
0.0
  0
LINE
  5
4A0
330
18
100
AcDbEntity
  8
DEFAULT
 62
     3
100
AcDbLine
 10
-48.7023
 20
-31.8943
 30
0.0
 11
-48.7023
 21
-8.2072
 31
0.0
  0
SOLID
  5
4A1
330
18
100
AcDbEntity
  8
DEFAULT
 62
     3
100
AcDbTrace
 10
-89.4644
 20
-35.5349
 30
0.0
 11
-89.4644
 21
-35.6
 31
0.0
 12
-89.6494
 22
-35.5675
 32
0.0
 13
-89.6494
 23
-35.5675
 33
0.0
  0
SOLID
  5
4A2
330
18
100
AcDbEntity
  8
DEFAULT
 62
     3
100
AcDbTrace
 10
-45.4229
 20
-35.6
 30
0.0
 11
-45.4229
 21
-35.5349
 31
0.0
 12
-45.238
 22
-35.5675
 32
0.0
 13
-45.238
 23
-35.5675
 33
0.0
  0
LINE
  5
4A3
330
18
100
AcDbEntity
  8
DEFAULT
 62
     3
100
AcDbLine
 10
-89.6494
 20
-35.5675
 30
0.0
 11
-69.6378
 21
-35.5675
 31
0.0
  0
LINE
  5
4A4
330
18
100
AcDbEntity
  8
DEFAULT
 62
     3
100
AcDbLine
 10
-65.1658
 20
-35.5675
 30
0.0
 11
-45.238
 21
-35.5675
 31
0.0
  0
TEXT
  5
4A5
330
18
100
AcDbEntity
  8
DEFAULT
 62
     3
100
AcDbText
 10
-69.5752
 20
-36.2121
 30
0.0
 40
1.2632
  1
44 7/16
  7
ARIAL_BOLD
100
AcDbText
  0
LINE
  5
4A6
330
18
100
AcDbEntity
  8
DEFAULT
 62
     3
100
AcDbLine
 10
-89.6494
 20
-35.6925
 30
0.0
 11
-89.6494
 21
-10.2072
 31
0.0
  0
LINE
  5
4A7
330
18
100
AcDbEntity
  8
DEFAULT
 62
     3
100
AcDbLine
 10
-45.238
 20
-35.6925
 30
0.0
 11
-45.238
 21
-10.2072
 31
0.0
  0
SOLID
  5
4A8
330
18
100
AcDbEntity
  8
DEFAULT
 62
     3
100
AcDbTrace
 10
-97.2586
 20
-40.1365
 30
0.0
 11
-97.2586
 21
-40.2016
 31
0.0
 12
-97.4436
 22
-40.1691
 32
0.0
 13
-97.4436
 23
-40.1691
 33
0.0
  0
SOLID
  5
4A9
330
18
100
AcDbEntity
  8
DEFAULT
 62
     3
100
AcDbTrace
 10
-37.6285
 20
-40.2016
 30
0.0
 11
-37.6285
 21
-40.1365
 31
0.0
 12
-37.4436
 22
-40.1691
 32
0.0
 13
-37.4436
 23
-40.1691
 33
0.0
  0
LINE
  5
4AA
330
18
100
AcDbEntity
  8
DEFAULT
 62
     3
100
AcDbLine
 10
-97.4436
 20
-40.1691
 30
0.0
 11
-67.36669999999999
 21
-40.1691
 31
0.0
  0
LINE
  5
4AB
330
18
100
AcDbEntity
  8
DEFAULT
 62
     3
100
AcDbLine
 10
-65.4295
 20
-40.1691
 30
0.0
 11
-37.4436
 21
-40.1691
 31
0.0
  0
TEXT
  5
4AC
330
18
100
AcDbEntity
  8
DEFAULT
 62
     3
100
AcDbText
 10
-67.30410000000001
 20
-40.8137
 30
0.0
 40
1.2632
  1
60
  7
ARIAL_BOLD
100
AcDbText
  0
LINE
  5
4AD
330
18
100
AcDbEntity
  8
DEFAULT
 62
     3
100
AcDbLine
 10
-97.4436
 20
-40.2941
 30
0.0
 11
-97.4436
 21
-19.9497
 31
0.0
  0
LINE
  5
4AE
330
18
100
AcDbEntity
  8
DEFAULT
 62
     3
100
AcDbLine
 10
-37.4436
 20
-40.2941
 30
0.0
 11
-37.4436
 21
-19.9497
 31
0.0
  0
SOLID
  5
4AF
330
18
100
AcDbEntity
  8
DEFAULT
 62
     3
100
AcDbTrace
 10
-34.3301
 20
37.1318
 30
0.0
 11
-34.3884
 21
37.1318
 31
0.0
 12
-34.3593
 22
37.3168
 32
0.0
 13
-34.3593
 23
37.3168
 33
0.0
  0
SOLID
  5
4B0
330
18
100
AcDbEntity
  8
DEFAULT
 62
     3
100
AcDbTrace
 10
-34.3884
 20
-14.4597
 30
0.0
 11
-34.3301
 21
-14.4597
 31
0.0
 12
-34.3593
 22
-14.6447
 32
0.0
 13
-34.3593
 23
-14.6447
 33
0.0
  0
LINE
  5
4B1
330
18
100
AcDbEntity
  8
DEFAULT
 62
     3
100
AcDbLine
 10
-34.3593
 20
15.4997
 30
0.0
 11
-34.3593
 21
37.3168
 31
0.0
  0
LINE
  5
4B2
330
18
100
AcDbEntity
  8
DEFAULT
 62
     3
100
AcDbLine
 10
-34.3593
 20
-14.6447
 30
0.0
 11
-34.3593
 21
11.7747
 31
0.0
  0
TEXT
  5
4B3
330
18
100
AcDbEntity
  8
DEFAULT
 62
     3
100
AcDbText
 10
-36.51
 20
12.9926
 30
0.0
 40
1.2632
  1
51 15/16
  7
ARIAL_BOLD
100
AcDbText
  0
LINE
  5
4B4
330
18
100
AcDbEntity
  8
DEFAULT
 62
     3
100
AcDbLine
 10
-67.3811
 20
37.3168
 30
0.0
 11
-34.2343
 21
37.3168
 31
0.0
  0
LINE
  5
4B5
330
18
100
AcDbEntity
  8
DEFAULT
 62
     3
100
AcDbLine
 10
-37.381
 20
-14.6447
 30
0.0
 11
-34.2343
 21
-14.6447
 31
0.0
  0
SOLID
  5
4B6
330
18
100
AcDbEntity
  8
DEFAULT
 62
     3
100
AcDbTrace
 10
-30.14
 20
37.1318
 30
0.0
 11
-30.1983
 21
37.1318
 31
0.0
 12
-30.1692
 22
37.3168
 32
0.0
 13
-30.1692
 23
37.3168
 33
0.0
  0
SOLID
  5
4B7
330
18
100
AcDbEntity
  8
DEFAULT
 62
     3
100
AcDbTrace
 10
-30.1983
 20
-17.7022
 30
0.0
 11
-30.14
 21
-17.7022
 31
0.0
 12
-30.1692
 22
-17.8872
 32
0.0
 13
-30.1692
 23
-17.8872
 33
0.0
  0
LINE
  5
4B8
330
18
100
AcDbEntity
  8
DEFAULT
 62
     3
100
AcDbLine
 10
-30.1692
 20
13.2482
 30
0.0
 11
-30.1692
 21
37.3168
 31
0.0
  0
LINE
  5
4B9
330
18
100
AcDbEntity
  8
DEFAULT
 62
     3
100
AcDbLine
 10
-30.1692
 20
-17.8872
 30
0.0
 11
-30.1692
 21
9.523199999999999
 31
0.0
  0
TEXT
  5
4BA
330
18
100
AcDbEntity
  8
DEFAULT
 62
     3
100
AcDbText
 10
-32.3199
 20
10.7411
 30
0.0
 40
1.2632
  1
55 3/16
  7
ARIAL_BOLD
100
AcDbText
  0
LINE
  5
4BB
330
18
100
AcDbEntity
  8
DEFAULT
 62
     3
100
AcDbLine
 10
-67.3811
 20
37.3168
 30
0.0
 11
-30.0442
 21
37.3168
 31
0.0
  0
LINE
  5
4BC
330
18
100
AcDbEntity
  8
DEFAULT
 62
     3
100
AcDbLine
 10
-37.3811
 20
-17.8872
 30
0.0
 11
-30.0442
 21
-17.8872
 31
0.0
  0
SOLID
  5
4BD
330
18
100
AcDbEntity
  8
DEFAULT
 62
     3
100
AcDbTrace
 10
-24.4759
 20
37.1318
 30
0.0
 11
-24.5342
 21
37.1318
 31
0.0
 12
-24.5051
 22
37.3168
 32
0.0
 13
-24.5051
 23
37.3168
 33
0.0
  0
SOLID
  5
4BE
330
18
100
AcDbEntity
  8
DEFAULT
 62
     3
100
AcDbTrace
 10
-24.5342
 20
-19.7022
 30
0.0
 11
-24.4759
 21
-19.7022
 31
0.0
 12
-24.5051
 22
-19.8872
 32
0.0
 13
-24.5051
 23
-19.8872
 33
0.0
  0
LINE
  5
4BF
330
18
100
AcDbEntity
  8
DEFAULT
 62
     3
100
AcDbLine
 10
-24.5051
 20
11.5673
 30
0.0
 11
-24.5051
 21
37.3168
 31
0.0
  0
LINE
  5
4C0
330
18
100
AcDbEntity
  8
DEFAULT
 62
     3
100
AcDbLine
 10
-24.5051
 20
-19.8872
 30
0.0
 11
-24.5051
 21
7.8423
 31
0.0
  0
TEXT
  5
4C1
330
18
100
AcDbEntity
  8
DEFAULT
 62
     3
100
AcDbText
 10
-26.6558
 20
9.0602
 30
0.0
 40
1.2632
  1
57 3/16
  7
ARIAL_BOLD
100
AcDbText
  0
LINE
  5
4C2
330
18
100
AcDbEntity
  8
DEFAULT
 62
     3
100
AcDbLine
 10
-67.3811
 20
37.3168
 30
0.0
 11
-24.3801
 21
37.3168
 31
0.0
  0
LINE
  5
4C3
330
18
100
AcDbEntity
  8
DEFAULT
 62
     3
100
AcDbLine
 10
-37.3811
 20
-19.8872
 30
0.0
 11
-24.3801
 21
-19.8872
 31
0.0
  0
LINE
  5
4C4
330
18
100
AcDbEntity
  8
DEFAULT
 62
     6
100
AcDbLine
 10
-119.8464
 20
-14.6447
 30
0.0
 11
-97.4435
 21
-14.6447
 31
0.0
  0
LINE
  5
4C5
330
18
100
AcDbEntity
  8
DEFAULT
 62
     6
100
AcDbLine
 10
-97.4436
 20
-14.6447
 30
0.0
 11
-37.4436
 21
-14.6447
 31
0.0
  0
LINE
  5
4C6
330
18
100
AcDbEntity
  8
DEFAULT
 62
     3
100
AcDbLine
 10
-100.3155
 20
-12.9866
 30
0.0
 11
-97.44370000000001
 21
-14.6447
 31
0.0
  0
TEXT
  5
4C7
330
18
100
AcDbEntity
  8
DEFAULT
100
AcDbText
 10
1.4959
 20
26.0799
 30
0.0
 40
1.5789
  1
NORTH FACE
 50
308.0
  7
ARIAL_BOLD
100
AcDbText
  0
TEXT
  5
4C8
330
18
100
AcDbEntity
  8
DEFAULT
100
AcDbText
 10
-4.1045
 20
22.0836
 30
0.0
 40
1.5789
  1
SOUTH FACE
 50
308.0
  7
ARIAL_BOLD
100
AcDbText
  0
LINE
  5
4C9
330
18
100
AcDbEntity
  8
DEFAULT
  6
DOT
100
AcDbLine
 10
-10.7823
 20
-22.2022
 30
0.0
 11
-1.4613
 21
-14.6447
 31
0.0
  0
LINE
  5
4CA
330
18
100
AcDbEntity
  8
DEFAULT
  6
DOT
100
AcDbLine
 10
-10.7823
 20
-22.2022
 30
0.0
 11
-8.8932
 21
-24.532
 31
0.0
  0
LINE
  5
4CB
330
18
100
AcDbEntity
  8
DEFAULT
  6
DOT
100
AcDbLine
 10
-8.8932
 20
-24.532
 30
0.0
 11
3.3018
 21
-14.6448
 31
0.0
  0
LINE
  5
4CC
330
18
100
AcDbEntity
  8
DEFAULT
 62
     5
100
AcDbLine
 10
-9.8378
 20
-23.3668
 30
0.0
 11
69.3708
 21
40.8512
 31
0.0
  0
TEXT
  5
4CD
330
18
100
AcDbEntity
  8
DEFAULT
100
AcDbText
 10
-23.3704
 20
-13.8848
 30
0.0
 40
1.2632
  1
ground level
  7
ARIAL
100
AcDbText
  0
SOLID
  5
4CE
330
18
100
AcDbEntity
  8
DEFAULT
 62
     3
100
AcDbTrace
 10
3.4867
 20
-17.1472
 30
0.0
 11
3.4867
 21
-17.2123
 31
0.0
 12
3.3018
 22
-17.1798
 32
0.0
 13
3.3018
 23
-17.1798
 33
0.0
  0
SOLID
  5
4CF
330
18
100
AcDbEntity
  8
DEFAULT
 62
     3
100
AcDbTrace
 10
28.2377
 20
-17.2123
 30
0.0
 11
28.2377
 21
-17.1472
 31
0.0
 12
28.4227
 22
-17.1798
 32
0.0
 13
28.4227
 23
-17.1798
 33
0.0
  0
LINE
  5
4D0
330
18
100
AcDbEntity
  8
DEFAULT
 62
     3
100
AcDbLine
 10
3.3018
 20
-17.1798
 30
0.0
 11
15.0722
 21
-17.1798
 31
0.0
  0
LINE
  5
4D1
330
18
100
AcDbEntity
  8
DEFAULT
 62
     3
100
AcDbLine
 10
18.5288
 20
-17.1798
 30
0.0
 11
28.4227
 21
-17.1798
 31
0.0
  0
TEXT
  5
4D2
330
18
100
AcDbEntity
  8
DEFAULT
 62
     3
100
AcDbText
 10
15.1348
 20
-17.8244
 30
0.0
 40
1.2632
  1
25 1/8
  7
ARIAL_BOLD
100
AcDbText
  0
LINE
  5
4D3
330
18
100
AcDbEntity
  8
DEFAULT
 62
     3
100
AcDbLine
 10
3.3018
 20
-17.3048
 30
0.0
 11
3.3018
 21
-14.7073
 31
0.0
  0
LINE
  5
4D4
330
18
100
AcDbEntity
  8
DEFAULT
 62
     3
100
AcDbLine
 10
28.4227
 20
-17.3048
 30
0.0
 11
28.4227
 21
-14.7074
 31
0.0
  0
LINE
  5
4D5
330
18
100
AcDbEntity
  8
DEFAULT
 62
     3
100
AcDbLine
 10
-12.9335
 20
-19.5491
 30
0.0
 11
-10.7825
 21
-22.2021
 31
0.0
  0
SOLID
  5
4D6
330
18
100
AcDbEntity
  8
DEFAULT
 62
     3
100
AcDbTrace
 10
-12.8081
 20
-19.4073
 30
0.0
 11
-12.7714
 21
-19.458
 31
0.0
 12
-12.9335
 22
-19.549
 32
0.0
 13
-12.9335
 23
-19.549
 33
0.0
  0
SOLID
  5
4D7
330
18
100
AcDbEntity
  8
DEFAULT
 62
     3
100
AcDbTrace
 10
-3.7376
 20
-12.1332
 30
0.0
 11
-3.7743
 21
-12.0825
 31
0.0
 12
-3.6123
 22
-11.9916
 32
0.0
 13
-3.6123
 23
-11.9916
 33
0.0
  0
TEXT
  5
4D8
330
18
100
AcDbEntity
  8
DEFAULT
 62
     3
100
AcDbText
 10
-8.812900000000001
 20
-16.1453
 30
0.0
 40
1.2632
  1
12
  7
ARIAL_BOLD
100
AcDbText
  0
LINE
  5
4D9
330
18
100
AcDbEntity
  8
DEFAULT
 62
     3
100
AcDbLine
 10
-12.9335
 20
-19.549
 30
0.0
 11
-8.8614
 21
-16.2465
 31
0.0
  0
LINE
  5
4DA
330
18
100
AcDbEntity
  8
DEFAULT
 62
     3
100
AcDbLine
 10
-7.0192
 20
-14.7549
 30
0.0
 11
-3.6123
 21
-11.9916
 31
0.0
  0
LINE
  5
4DB
330
18
100
AcDbEntity
  8
DEFAULT
 62
     3
100
AcDbLine
 10
-8.8935
 20
-24.5319
 30
0.0
 11
-6.7427
 21
-27.1849
 31
0.0
  0
LINE
  5
4DC
330
18
100
AcDbEntity
  8
DEFAULT
 62
     3
100
AcDbLine
 10
3.3019
 20
-14.645
 30
0.0
 11
5.4527
 21
-17.298
 31
0.0
  0
SOLID
  5
4DD
330
18
100
AcDbEntity
  8
DEFAULT
 62
     3
100
AcDbTrace
 10
-6.6172
 20
-27.0432
 30
0.0
 11
-6.5805
 21
-27.0939
 31
0.0
 12
-6.7426
 22
-27.1849
 32
0.0
 13
-6.7426
 23
-27.1849
 33
0.0
  0
SOLID
  5
4DE
330
18
100
AcDbEntity
  8
DEFAULT
 62
     3
100
AcDbTrace
 10
5.3273
 20
-17.4396
 30
0.0
 11
5.2906
 21
-17.3889
 31
0.0
 12
5.4527
 22
-17.298
 32
0.0
 13
5.4527
 23
-17.298
 33
0.0
  0
TEXT
  5
4DF
330
18
100
AcDbEntity
  8
DEFAULT
 62
     3
100
AcDbText
 10
-2.4544
 20
-22.6346
 30
0.0
 40
1.2632
  1
15 11/16
  7
ARIAL_BOLD
100
AcDbText
  0
LINE
  5
4E0
330
18
100
AcDbEntity
  8
DEFAULT
 62
     3
100
AcDbLine
 10
-6.7426
 20
-27.1849
 30
0.0
 11
-2.503
 21
-23.7455
 31
0.0
  0
LINE
  5
4E1
330
18
100
AcDbEntity
  8
DEFAULT
 62
     3
100
AcDbLine
 10
1.8334
 20
-20.2345
 30
0.0
 11
5.4527
 21
-17.298
 31
0.0
  0
LINE
  5
4E2
330
18
100
AcDbEntity
  8
DEFAULT
 62
     3
100
AcDbLine
 10
-11.2923
 20
-26.4773
 30
0.0
 11
-8.8934
 21
-24.5319
 31
0.0
  0
LINE
  5
4E3
330
18
100
AcDbEntity
  8
DEFAULT
 62
     3
100
AcDbLine
 10
-13.1814
 20
-24.1475
 30
0.0
 11
-10.7824
 21
-22.2021
 31
0.0
  0
SOLID
  5
4E4
330
18
100
AcDbEntity
  8
DEFAULT
 62
     3
100
AcDbTrace
 10
-13.0423
 20
-24.2706
 30
0.0
 11
-13.0876
 21
-24.3116
 31
0.0
 12
-13.1813
 22
-24.1474
 32
0.0
 13
-13.1813
 23
-24.1474
 33
0.0
  0
SOLID
  5
4E5
330
18
100
AcDbEntity
  8
DEFAULT
 62
     3
100
AcDbTrace
 10
-11.4311
 20
-26.3539
 30
0.0
 11
-11.3858
 21
-26.3129
 31
0.0
 12
-11.2922
 22
-26.4772
 32
0.0
 13
-11.2922
 23
-26.4772
 33
0.0
  0
TEXT
  5
4E6
330
18
100
AcDbEntity
  8
DEFAULT
 62
     3
100
AcDbText
 10
-12.6576
 20
-25.9584
 30
0.0
 40
1.2632
  1
3
  7
ARIAL_BOLD
100
AcDbText
  0
LINE
  5
4E7
330
18
100
AcDbEntity
  8
DEFAULT
 62
     3
100
AcDbLine
 10
-13.1813
 20
-24.1474
 30
0.0
 11
-12.6969
 21
-24.7441
 31
0.0
  0
LINE
  5
4E8
330
18
100
AcDbEntity
  8
DEFAULT
 62
     3
100
AcDbLine
 10
-11.7743
 20
-25.8835
 30
0.0
 11
-11.2922
 21
-26.4772
 31
0.0
  0
LINE
  5
4E9
330
18
100
AcDbEntity
  8
DEFAULT
 62
     3
100
AcDbLine
 10
-15.7011
 20
-16.1349
 30
0.0
 11
-12.9335
 21
-19.5491
 31
0.0
  0
LINE
  5
4EA
330
18
100
AcDbEntity
  8
DEFAULT
100
AcDbLine
 10
-4.3013
 20
25.7178
 30
0.0
 11
31.7243
 21
-18.7173
 31
0.0
  0
LINE
  5
4EB
330
18
100
AcDbEntity
  8
DEFAULT
100
AcDbLine
 10
31.7244
 20
-18.7173
 30
0.0
 11
34.8316
 21
-16.1983
 31
0.0
  0
LINE
  5
4EC
330
18
100
AcDbEntity
  8
DEFAULT
100
AcDbLine
 10
-1.194
 20
28.2365
 30
0.0
 11
34.8316
 21
-16.1982
 31
0.0
  0
SOLID
  5
4ED
330
18
100
AcDbEntity
  8
DEFAULT
 62
     3
100
AcDbTrace
 10
-15.5756
 20
-15.9932
 30
0.0
 11
-15.5389
 21
-16.0439
 31
0.0
 12
-15.701
 22
-16.1349
 32
0.0
 13
-15.701
 23
-16.1349
 33
0.0
  0
SOLID
  5
4EE
330
18
100
AcDbEntity
  8
DEFAULT
 62
     3
100
AcDbTrace
 10
38.7996
 20
28.0112
 30
0.0
 11
38.7629
 21
28.0619
 31
0.0
 12
38.925
 22
28.1529
 32
0.0
 13
38.925
 23
28.1529
 33
0.0
  0
TEXT
  5
4EF
330
18
100
AcDbEntity
  8
DEFAULT
 62
     3
100
AcDbText
 10
8.0396
 20
4.2129
 30
0.0
 40
1.2632
  1
70 5/16
  7
ARIAL_BOLD
100
AcDbText
  0
LINE
  5
4F0
330
18
100
AcDbEntity
  8
DEFAULT
 62
     3
100
AcDbLine
 10
-15.701
 20
-16.1349
 30
0.0
 11
7.991
 21
3.0757
 31
0.0
  0
LINE
  5
4F1
330
18
100
AcDbEntity
  8
DEFAULT
 62
     3
100
AcDbLine
 10
12.3924
 20
6.6393
 30
0.0
 11
38.925
 21
28.1529
 31
0.0
  0
LINE
  5
4F2
330
18
100
AcDbEntity
  8
DEFAULT
 62
     3
100
AcDbLine
 10
24.2744
 20
-18.0077
 30
0.0
 11
28.423
 21
-14.6448
 31
0.0
  0
LINE
  5
4F3
330
18
100
AcDbEntity
  8
DEFAULT
 62
     3
100
AcDbLine
 10
27.5757
 20
-22.0803
 30
0.0
 11
31.7244
 21
-18.7174
 31
0.0
  0
SOLID
  5
4F4
330
18
100
AcDbEntity
  8
DEFAULT
 62
     3
100
AcDbTrace
 10
24.4132
 20
-18.1309
 30
0.0
 11
24.3679
 21
-18.1719
 31
0.0
 12
24.2743
 22
-18.0077
 32
0.0
 13
24.2743
 23
-18.0077
 33
0.0
  0
SOLID
  5
4F5
330
18
100
AcDbEntity
  8
DEFAULT
 62
     3
100
AcDbTrace
 10
27.4366
 20
-21.957
 30
0.0
 11
27.4819
 21
-21.916
 31
0.0
 12
27.5756
 22
-22.0803
 32
0.0
 13
27.5756
 23
-22.0803
 33
0.0
  0
TEXT
  5
4F6
330
18
100
AcDbEntity
  8
DEFAULT
 62
     3
100
AcDbText
 10
25.3622
 20
-19.9632
 30
0.0
 40
0.7579
  1
5 1/4
 50
309.0
  7
ARIAL_BOLD
100
AcDbText
  0
LINE
  5
4F7
330
18
100
AcDbEntity
  8
DEFAULT
 62
     3
100
AcDbLine
 10
24.2743
 20
-18.0077
 30
0.0
 11
25.6235
 21
-19.6713
 31
0.0
  0
LINE
  5
4F8
330
18
100
AcDbEntity
  8
DEFAULT
 62
     3
100
AcDbLine
 10
26.5887
 20
-20.8635
 30
0.0
 11
27.5756
 21
-22.0803
 31
0.0
  0
LINE
  5
4F9
330
18
100
AcDbEntity
  8
DEFAULT
 62
     3
100
AcDbLine
 10
34.8316
 20
-16.1982
 30
0.0
 11
37.1131
 21
-14.0286
 31
0.0
  0
SOLID
  5
4FA
330
18
100
AcDbEntity
  8
DEFAULT
 62
     3
100
AcDbTrace
 10
33.6602
 20
-10.3528
 30
0.0
 11
33.618
 21
-10.3978
 31
0.0
 12
33.5117
 22
-10.2415
 32
0.0
 13
33.5117
 23
-10.2415
 33
0.0
  0
SOLID
  5
4FB
330
18
100
AcDbEntity
  8
DEFAULT
 62
     3
100
AcDbTrace
 10
35.5906
 20
-12.4726
 30
0.0
 11
35.6328
 21
-12.4276
 31
0.0
 12
35.7392
 22
-12.584
 32
0.0
 13
35.7392
 23
-12.584
 33
0.0
  0
TEXT
  5
4FC
330
18
100
AcDbEntity
  8
DEFAULT
 62
     3
100
AcDbText
 10
33.9678
 20
-11.283
 30
0.0
 40
0.7579
  1
3 1/4
 50
313.6
  7
ARIAL_BOLD
100
AcDbText
  0
LINE
  5
4FD
330
18
100
AcDbEntity
  8
DEFAULT
 62
     3
100
AcDbLine
 10
33.5117
 20
-10.2415
 30
0.0
 11
34.2049
 21
-10.9713
 31
0.0
  0
LINE
  5
4FE
330
18
100
AcDbEntity
  8
DEFAULT
 62
     3
100
AcDbLine
 10
35.2673
 20
-12.0869
 30
0.0
 11
35.7392
 21
-12.584
 31
0.0
  0
SOLID
  5
4FF
330
18
100
AcDbEntity
  8
DEFAULT
 62
     3
100
AcDbTrace
 10
35.8878
 20
-12.6952
 30
0.0
 11
35.8456
 21
-12.7402
 31
0.0
 12
35.7393
 22
-12.5839
 32
0.0
 13
35.7393
 23
-12.5839
 33
0.0
  0
SOLID
  5
500
330
18
100
AcDbEntity
  8
DEFAULT
 62
     3
100
AcDbTrace
 10
36.9645
 20
-13.9171
 30
0.0
 11
37.0067
 21
-13.8721
 31
0.0
 12
37.1131
 22
-14.0285
 32
0.0
 13
37.1131
 23
-14.0285
 33
0.0
  0
TEXT
  5
501
330
18
100
AcDbEntity
  8
DEFAULT
 62
     3
100
AcDbText
 10
35.9718
 20
-13.3898
 30
0.0
 40
0.7579
  1
2
 50
313.6
  7
ARIAL_BOLD
100
AcDbText
  0
LINE
  5
502
330
18
100
AcDbEntity
  8
DEFAULT
 62
     3
100
AcDbLine
 10
35.7393
 20
-12.5839
 30
0.0
 11
36.2088
 21
-13.078
 31
0.0
  0
LINE
  5
503
330
18
100
AcDbEntity
  8
DEFAULT
 62
     3
100
AcDbLine
 10
36.648
 20
-13.5392
 30
0.0
 11
37.1131
 21
-14.0285
 31
0.0
  0
LINE
  5
504
330
18
100
AcDbEntity
  8
DEFAULT
 62
     3
100
AcDbLine
 10
34.8316
 20
-16.1982
 30
0.0
 11
38.2206
 21
-20.3785
 31
0.0
  0
LINE
  5
505
330
18
100
AcDbEntity
  8
DEFAULT
 62
     3
100
AcDbLine
 10
31.7244
 20
-18.7174
 30
0.0
 11
35.1134
 21
-22.8975
 31
0.0
  0
TEXT
  5
506
330
18
100
AcDbEntity
  8
DEFAULT
100
AcDbText
 10
14.8573
 20
-8.7867
 30
0.0
 40
0.7579
  1
support plate
  7
ARIAL
100
AcDbText
  0
LINE
  5
507
330
18
100
AcDbEntity
  8
DEFAULT
 62
     1
100
AcDbLine
 10
17.7547
 20
-7.5378
 30
0.0
 11
19.0019
 21
-3.4543
 31
0.0
  0
LINE
  5
508
330
18
100
AcDbEntity
  8
DEFAULT
 62
     1
100
AcDbLine
 10
18.0425
 20
-4.4524
 30
0.0
 11
19.0019
 21
-3.4543
 31
0.0
  0
LINE
  5
509
330
18
100
AcDbEntity
  8
DEFAULT
 62
     1
100
AcDbLine
 10
19.0019
 20
-3.4543
 30
0.0
 11
19.2401
 21
-4.818
 31
0.0
  0
SOLID
  5
50A
330
18
100
AcDbEntity
  8
DEFAULT
 62
     3
100
AcDbTrace
 10
-6.0827
 20
28.2131
 30
0.0
 11
-6.0483
 21
28.1604
 31
0.0
 12
-6.2149
 22
28.0779
 32
0.0
 13
-6.2149
 23
28.0779
 33
0.0
  0
SOLID
  5
50B
330
18
100
AcDbEntity
  8
DEFAULT
 62
     3
100
AcDbTrace
 10
-3.1108
 20
30.3025
 30
0.0
 11
-3.1452
 21
30.3552
 31
0.0
 12
-2.9787
 22
30.4378
 32
0.0
 13
-2.9787
 23
30.4378
 33
0.0
  0
TEXT
  5
50C
330
18
100
AcDbEntity
  8
DEFAULT
 62
     3
100
AcDbText
 10
-5.0267
 20
28.633
 30
0.0
 40
1.2632
  1
4
  7
ARIAL_BOLD
100
AcDbText
  0
LINE
  5
50D
330
18
100
AcDbEntity
  8
DEFAULT
 62
     3
100
AcDbLine
 10
-6.2149
 20
28.0779
 30
0.0
 11
-5.0771
 21
28.9077
 31
0.0
  0
LINE
  5
50E
330
18
100
AcDbEntity
  8
DEFAULT
 62
     3
100
AcDbLine
 10
-4.0625
 20
29.6475
 30
0.0
 11
-2.9787
 21
30.4378
 31
0.0
  0
SOLID
  5
50F
330
18
100
AcDbEntity
  8
DEFAULT
 62
     3
100
AcDbTrace
 10
35.2386
 20
-22.7557
 30
0.0
 11
35.2753
 21
-22.8064
 31
0.0
 12
35.1133
 22
-22.8974
 32
0.0
 13
35.1133
 23
-22.8974
 33
0.0
  0
SOLID
  5
510
330
18
100
AcDbEntity
  8
DEFAULT
 62
     3
100
AcDbTrace
 10
38.0951
 20
-20.52
 30
0.0
 11
38.0584
 21
-20.4693
 31
0.0
 12
38.2205
 22
-20.3784
 32
0.0
 13
38.2205
 23
-20.3784
 33
0.0
  0
TEXT
  5
511
330
18
100
AcDbEntity
  8
DEFAULT
 62
     3
100
AcDbText
 10
36.772
 20
-22.3822
 30
0.0
 40
1.2632
  1
4
 50
39.0
  7
ARIAL_BOLD
100
AcDbText
  0
LINE
  5
512
330
18
100
AcDbEntity
  8
DEFAULT
 62
     3
100
AcDbLine
 10
35.1133
 20
-22.8974
 30
0.0
 11
36.3178
 21
-21.9205
 31
0.0
  0
LINE
  5
513
330
18
100
AcDbEntity
  8
DEFAULT
 62
     3
100
AcDbLine
 10
37.125
 20
-21.2671
 30
0.0
 11
38.2205
 21
-20.3784
 31
0.0
  0
LINE
  5
514
330
18
100
AcDbEntity
  8
DEFAULT
 62
     3
100
AcDbLine
 10
33.5721
 20
-14.6448
 30
0.0
 11
35.7393
 21
-12.584
 31
0.0
  0
SOLID
  5
515
330
18
100
AcDbEntity
  8
DEFAULT
 62
     3
100
AcDbTrace
 10
28.6079
 20
-22.9332
 30
0.0
 11
28.6079
 21
-22.9983
 31
0.0
 12
28.423
 22
-22.9658
 32
0.0
 13
28.423
 23
-22.9658
 33
0.0
  0
SOLID
  5
516
330
18
100
AcDbEntity
  8
DEFAULT
 62
     3
100
AcDbTrace
 10
33.3871
 20
-22.9983
 30
0.0
 11
33.3871
 21
-22.9332
 31
0.0
 12
33.5721
 22
-22.9658
 32
0.0
 13
33.5721
 23
-22.9658
 33
0.0
  0
LINE
  5
517
330
18
100
AcDbEntity
  8
DEFAULT
 62
     3
100
AcDbLine
 10
28.423
 20
-22.9658
 30
0.0
 11
30.3041
 21
-22.9658
 31
0.0
  0
LINE
  5
518
330
18
100
AcDbEntity
  8
DEFAULT
 62
     3
100
AcDbLine
 10
31.8153
 20
-22.9658
 30
0.0
 11
33.5721
 21
-22.9658
 31
0.0
  0
TEXT
  5
519
330
18
100
AcDbEntity
  8
DEFAULT
 62
     3
100
AcDbText
 10
30.3667
 20
-23.3525
 30
0.0
 40
0.7579
  1
5 1/8
  7
ARIAL_BOLD
100
AcDbText
  0
LINE
  5
51A
330
18
100
AcDbEntity
  8
DEFAULT
 62
     3
100
AcDbLine
 10
28.423
 20
-23.0908
 30
0.0
 11
28.423
 21
-14.7073
 31
0.0
  0
LINE
  5
51B
330
18
100
AcDbEntity
  8
DEFAULT
 62
     3
100
AcDbLine
 10
33.5721
 20
-23.0908
 30
0.0
 11
33.5721
 21
-14.7073
 31
0.0
  0
SOLID
  5
51C
330
18
100
AcDbEntity
  8
DEFAULT
 62
     3
100
AcDbTrace
 10
39.9201
 20
-14.8297
 30
0.0
 11
39.8618
 21
-14.8297
 31
0.0
 12
39.891
 22
-14.6448
 32
0.0
 13
39.891
 23
-14.6448
 33
0.0
  0
SOLID
  5
51D
330
18
100
AcDbEntity
  8
DEFAULT
 62
     3
100
AcDbTrace
 10
39.8618
 20
-18.5324
 30
0.0
 11
39.9201
 21
-18.5324
 31
0.0
 12
39.891
 22
-18.7174
 32
0.0
 13
39.891
 23
-18.7174
 33
0.0
  0
LINE
  5
51E
330
18
100
AcDbEntity
  8
DEFAULT
 62
     3
100
AcDbLine
 10
39.891
 20
-15.6407
 30
0.0
 11
39.891
 21
-14.6448
 31
0.0
  0
LINE
  5
51F
330
18
100
AcDbEntity
  8
DEFAULT
 62
     3
100
AcDbLine
 10
39.891
 20
-18.7174
 30
0.0
 11
39.891
 21
-17.9257
 31
0.0
  0
TEXT
  5
520
330
18
100
AcDbEntity
  8
DEFAULT
 62
     3
100
AcDbText
 10
38.8832
 20
-17.1699
 30
0.0
 40
0.7579
  1
4 1/16
  7
ARIAL_BOLD
100
AcDbText
  0
LINE
  5
521
330
18
100
AcDbEntity
  8
DEFAULT
 62
     3
100
AcDbLine
 10
33.6346
 20
-14.6448
 30
0.0
 11
40.016
 21
-14.6448
 31
0.0
  0
LINE
  5
522
330
18
100
AcDbEntity
  8
DEFAULT
 62
     3
100
AcDbLine
 10
31.7869
 20
-18.7174
 30
0.0
 11
40.016
 21
-18.7174
 31
0.0
  0
SOLID
  5
523
330
18
100
AcDbEntity
  8
DEFAULT
 62
     3
100
AcDbTrace
 10
7.2761
 20
-14.8299
 30
0.0
 11
7.2178
 21
-14.8299
 31
0.0
 12
7.247
 22
-14.645
 32
0.0
 13
7.247
 23
-14.645
 33
0.0
  0
SOLID
  5
524
330
18
100
AcDbEntity
  8
DEFAULT
 62
     3
100
AcDbTrace
 10
7.2178
 20
-24.3469
 30
0.0
 11
7.2761
 21
-24.3469
 31
0.0
 12
7.247
 22
-24.5319
 32
0.0
 13
7.247
 23
-24.5319
 33
0.0
  0
LINE
  5
525
330
18
100
AcDbEntity
  8
DEFAULT
 62
     3
100
AcDbLine
 10
7.247
 20
-17.7544
 30
0.0
 11
7.247
 21
-14.645
 31
0.0
  0
LINE
  5
526
330
18
100
AcDbEntity
  8
DEFAULT
 62
     3
100
AcDbLine
 10
7.247
 20
-24.5319
 30
0.0
 11
7.247
 21
-21.4794
 31
0.0
  0
TEXT
  5
527
330
18
100
AcDbEntity
  8
DEFAULT
 62
     3
100
AcDbText
 10
6.0808
 20
-20.2615
 30
0.0
 40
1.2632
  1
9 7/8
  7
ARIAL_BOLD
100
AcDbText
  0
LINE
  5
528
330
18
100
AcDbEntity
  8
DEFAULT
 62
     3
100
AcDbLine
 10
3.3644
 20
-14.645
 30
0.0
 11
7.372
 21
-14.645
 31
0.0
  0
LINE
  5
529
330
18
100
AcDbEntity
  8
DEFAULT
 62
     3
100
AcDbLine
 10
-8.8309
 20
-24.5319
 30
0.0
 11
7.372
 21
-24.5319
 31
0.0
  0
LINE
  5
52A
330
18
100
AcDbEntity
  8
DEFAULT
 62
     6
100
AcDbLine
 10
-37.4435
 20
-14.6447
 30
0.0
 11
118.9893
 21
-14.6447
 31
0.0
  0
SOLID
  5
52B
330
18
100
AcDbEntity
  8
DEFAULT
 62
     3
100
AcDbTrace
 10
-1.2763
 20
-11.4512
 30
0.0
 11
-1.2763
 21
-11.5163
 31
0.0
 12
-1.4613
 22
-11.4838
 32
0.0
 13
-1.4613
 23
-11.4838
 33
0.0
  0
SOLID
  5
52C
330
18
100
AcDbEntity
  8
DEFAULT
 62
     3
100
AcDbTrace
 10
3.1169
 20
-11.5163
 30
0.0
 11
3.1169
 21
-11.4512
 31
0.0
 12
3.3019
 22
-11.4838
 32
0.0
 13
3.3019
 23
-11.4838
 33
0.0
  0
LINE
  5
52D
330
18
100
AcDbEntity
  8
DEFAULT
 62
     3
100
AcDbLine
 10
-1.4613
 20
-11.4838
 30
0.0
 11
0.1994
 21
-11.4838
 31
0.0
  0
LINE
  5
52E
330
18
100
AcDbEntity
  8
DEFAULT
 62
     3
100
AcDbLine
 10
1.7612
 20
-11.4838
 30
0.0
 11
3.3019
 21
-11.4838
 31
0.0
  0
TEXT
  5
52F
330
18
100
AcDbEntity
  8
DEFAULT
 62
     3
100
AcDbText
 10
0.262
 20
-11.8705
 30
0.0
 40
0.7579
  1
4 3/4
  7
ARIAL_BOLD
100
AcDbText
  0
LINE
  5
530
330
18
100
AcDbEntity
  8
DEFAULT
 62
     3
100
AcDbLine
 10
-1.4613
 20
-14.5822
 30
0.0
 11
-1.4613
 21
-11.3588
 31
0.0
  0
LINE
  5
531
330
18
100
AcDbEntity
  8
DEFAULT
 62
     3
100
AcDbLine
 10
3.3019
 20
-14.5825
 30
0.0
 11
3.3019
 21
-11.3588
 31
0.0
  0
TEXT
  5
532
330
18
100
AcDbEntity
  8
DEFAULT
100
AcDbText
 10
26.6115
 20
-27.2905
 30
0.0
 40
1.2632
  1
notch
  7
ARIAL
100
AcDbText
  0
TEXT
  5
533
330
18
100
AcDbEntity
  8
DEFAULT
100
AcDbText
 10
26.6115
 20
-29.2186
 30
0.0
 40
1.2632
  1
in concrete
  7
ARIAL
100
AcDbText
  0
LINE
  5
534
330
18
100
AcDbEntity
  8
DEFAULT
100
AcDbLine
 10
-51.9806
 20
29.0738
 30
0.0
 11
-39.9806
 21
29.0738
 31
0.0
  0
LINE
  5
535
330
18
100
AcDbEntity
  8
DEFAULT
100
AcDbLine
 10
-51.9806
 20
29.0738
 30
0.0
 11
-51.9806
 21
30.4635
 31
0.0
  0
LINE
  5
536
330
18
100
AcDbEntity
  8
DEFAULT
100
AcDbLine
 10
-50.9806
 20
29.0738
 30
0.0
 11
-50.9806
 21
30.4635
 31
0.0
  0
LINE
  5
537
330
18
100
AcDbEntity
  8
DEFAULT
100
AcDbLine
 10
-49.9806
 20
29.0738
 30
0.0
 11
-49.9806
 21
30.4635
 31
0.0
  0
LINE
  5
538
330
18
100
AcDbEntity
  8
DEFAULT
100
AcDbLine
 10
-48.9806
 20
29.0738
 30
0.0
 11
-48.9806
 21
30.4635
 31
0.0
  0
LINE
  5
539
330
18
100
AcDbEntity
  8
DEFAULT
100
AcDbLine
 10
-47.9806
 20
29.0738
 30
0.0
 11
-47.9806
 21
30.4635
 31
0.0
  0
LINE
  5
53A
330
18
100
AcDbEntity
  8
DEFAULT
100
AcDbLine
 10
-46.9806
 20
29.0738
 30
0.0
 11
-46.9806
 21
30.4635
 31
0.0
  0
LINE
  5
53B
330
18
100
AcDbEntity
  8
DEFAULT
100
AcDbLine
 10
-45.9806
 20
29.0738
 30
0.0
 11
-45.9806
 21
30.4635
 31
0.0
  0
LINE
  5
53C
330
18
100
AcDbEntity
  8
DEFAULT
100
AcDbLine
 10
-44.9806
 20
29.0738
 30
0.0
 11
-44.9806
 21
30.4635
 31
0.0
  0
LINE
  5
53D
330
18
100
AcDbEntity
  8
DEFAULT
100
AcDbLine
 10
-43.9806
 20
29.0738
 30
0.0
 11
-43.9806
 21
30.4635
 31
0.0
  0
LINE
  5
53E
330
18
100
AcDbEntity
  8
DEFAULT
100
AcDbLine
 10
-42.9806
 20
29.0738
 30
0.0
 11
-42.9806
 21
30.4635
 31
0.0
  0
LINE
  5
53F
330
18
100
AcDbEntity
  8
DEFAULT
100
AcDbLine
 10
-41.9806
 20
29.0738
 30
0.0
 11
-41.9806
 21
30.4635
 31
0.0
  0
LINE
  5
540
330
18
100
AcDbEntity
  8
DEFAULT
100
AcDbLine
 10
-40.9806
 20
29.0738
 30
0.0
 11
-40.9806
 21
30.4635
 31
0.0
  0
LINE
  5
541
330
18
100
AcDbEntity
  8
DEFAULT
100
AcDbLine
 10
-39.9806
 20
29.0738
 30
0.0
 11
-39.9806
 21
30.4635
 31
0.0
  0
POINT
  5
542
330
18
100
AcDbEntity
  8
DEFAULT
 62
     1
100
AcDbPoint
 10
-45.9806
 20
29.0738
 30
0.0
  0
TEXT
  5
543
330
18
100
AcDbEntity
  8
DEFAULT
100
AcDbText
 10
-51.7782
 20
26.9176
 30
0.0
 40
1.1368
  1
Scale: 12 inches
  7
ARIAL
100
AcDbText
  0
SOLID
  5
544
330
18
100
AcDbEntity
  8
DEFAULT
 62
     3
100
AcDbTrace
 10
-183.5465
 20
40.3743
 30
0.0
 11
-183.6048
 21
40.3743
 31
0.0
 12
-183.5757
 22
40.5593
 32
0.0
 13
-183.5757
 23
40.5593
 33
0.0
  0
SOLID
  5
545
330
18
100
AcDbEntity
  8
DEFAULT
 62
     3
100
AcDbTrace
 10
-183.6048
 20
6.1031
 30
0.0
 11
-183.5465
 21
6.1031
 31
0.0
 12
-183.5757
 22
5.9182
 32
0.0
 13
-183.5757
 23
5.9182
 33
0.0
  0
LINE
  5
546
330
18
100
AcDbEntity
  8
DEFAULT
 62
     3
100
AcDbLine
 10
-183.5757
 20
26.1091
 30
0.0
 11
-183.5757
 21
40.5593
 31
0.0
  0
LINE
  5
547
330
18
100
AcDbEntity
  8
DEFAULT
 62
     3
100
AcDbLine
 10
-183.5757
 20
5.9182
 30
0.0
 11
-183.5757
 21
22.7441
 31
0.0
  0
TEXT
  5
548
330
18
100
AcDbEntity
  8
DEFAULT
 62
     3
100
AcDbText
 10
-185.0648
 20
23.8465
 30
0.0
 40
1.1368
  1
34 5/8
  7
ARIAL_BOLD
100
AcDbText
  0
LINE
  5
549
330
18
100
AcDbEntity
  8
DEFAULT
 62
     3
100
AcDbLine
 10
-183.7007
 20
40.5593
 30
0.0
 11
-149.9089
 21
40.5593
 31
0.0
  0
LINE
  5
54A
330
18
100
AcDbEntity
  8
DEFAULT
 62
     3
100
AcDbLine
 10
-183.7007
 20
5.9182
 30
0.0
 11
-149.9089
 21
5.9182
 31
0.0
  0
SOLID
  5
54B
330
18
100
AcDbEntity
  8
DEFAULT
 62
     3
100
AcDbTrace
 10
-183.5465
 20
5.7332
 30
0.0
 11
-183.6048
 21
5.7332
 31
0.0
 12
-183.5757
 22
5.9182
 32
0.0
 13
-183.5757
 23
5.9182
 33
0.0
  0
SOLID
  5
54C
330
18
100
AcDbEntity
  8
DEFAULT
 62
     3
100
AcDbTrace
 10
-183.6048
 20
-11.2172
 30
0.0
 11
-183.5465
 21
-11.2172
 31
0.0
 12
-183.5757
 22
-11.4022
 32
0.0
 13
-183.5757
 23
-11.4022
 33
0.0
  0
LINE
  5
54D
330
18
100
AcDbEntity
  8
DEFAULT
 62
     3
100
AcDbLine
 10
-183.5757
 20
-1.3662
 30
0.0
 11
-183.5757
 21
5.9182
 31
0.0
  0
LINE
  5
54E
330
18
100
AcDbEntity
  8
DEFAULT
 62
     3
100
AcDbLine
 10
-183.5757
 20
-11.4022
 30
0.0
 11
-183.5757
 21
-4.7312
 31
0.0
  0
TEXT
  5
54F
330
18
100
AcDbEntity
  8
DEFAULT
 62
     3
100
AcDbText
 10
-185.4834
 20
-3.6288
 30
0.0
 40
1.1368
  1
17 5/16
  7
ARIAL_BOLD
100
AcDbText
  0
LINE
  5
550
330
18
100
AcDbEntity
  8
DEFAULT
 62
     3
100
AcDbLine
 10
-183.7007
 20
5.9182
 30
0.0
 11
-149.9089
 21
5.9182
 31
0.0
  0
LINE
  5
551
330
18
100
AcDbEntity
  8
DEFAULT
 62
     3
100
AcDbLine
 10
-183.7007
 20
-11.4022
 30
0.0
 11
-179.9089
 21
-11.4022
 31
0.0
  0
SOLID
  5
552
330
18
100
AcDbEntity
  8
DEFAULT
 62
     3
100
AcDbTrace
 10
-116.7329
 20
40.3743
 30
0.0
 11
-116.7912
 21
40.3743
 31
0.0
 12
-116.7621
 22
40.5593
 32
0.0
 13
-116.7621
 23
40.5593
 33
0.0
  0
SOLID
  5
553
330
18
100
AcDbEntity
  8
DEFAULT
 62
     3
100
AcDbTrace
 10
-116.7912
 20
-11.2172
 30
0.0
 11
-116.7329
 21
-11.2172
 31
0.0
 12
-116.7621
 22
-11.4022
 32
0.0
 13
-116.7621
 23
-11.4022
 33
0.0
  0
LINE
  5
554
330
18
100
AcDbEntity
  8
DEFAULT
 62
     3
100
AcDbLine
 10
-116.7621
 20
18.7422
 30
0.0
 11
-116.7621
 21
40.5593
 31
0.0
  0
LINE
  5
555
330
18
100
AcDbEntity
  8
DEFAULT
 62
     3
100
AcDbLine
 10
-116.7621
 20
-11.4022
 30
0.0
 11
-116.7621
 21
15.0172
 31
0.0
  0
TEXT
  5
556
330
18
100
AcDbEntity
  8
DEFAULT
 62
     3
100
AcDbText
 10
-118.9128
 20
16.2351
 30
0.0
 40
1.2632
  1
51 15/16
  7
ARIAL_BOLD
100
AcDbText
  0
LINE
  5
557
330
18
100
AcDbEntity
  8
DEFAULT
 62
     3
100
AcDbLine
 10
-149.7839
 20
40.5593
 30
0.0
 11
-116.6371
 21
40.5593
 31
0.0
  0
LINE
  5
558
330
18
100
AcDbEntity
  8
DEFAULT
 62
     3
100
AcDbLine
 10
-119.7838
 20
-11.4022
 30
0.0
 11
-116.6371
 21
-11.4022
 31
0.0
  0
SOLID
  5
559
330
18
100
AcDbEntity
  8
DEFAULT
 62
     3
100
AcDbTrace
 10
-188.007
 20
40.3743
 30
0.0
 11
-188.0653
 21
40.3743
 31
0.0
 12
-188.0362
 22
40.5593
 32
0.0
 13
-188.0362
 23
40.5593
 33
0.0
  0
SOLID
  5
55A
330
18
100
AcDbEntity
  8
DEFAULT
 62
     3
100
AcDbTrace
 10
-188.0653
 20
-11.2172
 30
0.0
 11
-188.007
 21
-11.2172
 31
0.0
 12
-188.0362
 22
-11.4022
 32
0.0
 13
-188.0362
 23
-11.4022
 33
0.0
  0
LINE
  5
55B
330
18
100
AcDbEntity
  8
DEFAULT
 62
     3
100
AcDbLine
 10
-188.0362
 20
15.0208
 30
0.0
 11
-188.0362
 21
40.5593
 31
0.0
  0
LINE
  5
55C
330
18
100
AcDbEntity
  8
DEFAULT
 62
     3
100
AcDbLine
 10
-188.0362
 20
-11.4022
 30
0.0
 11
-188.0362
 21
11.6558
 31
0.0
  0
TEXT
  5
55D
330
18
100
AcDbEntity
  8
DEFAULT
 62
     3
100
AcDbText
 10
-189.9718
 20
12.7582
 30
0.0
 40
1.1368
  1
51 15/16
  7
ARIAL_BOLD
100
AcDbText
  0
LINE
  5
55E
330
18
100
AcDbEntity
  8
DEFAULT
 62
     3
100
AcDbLine
 10
-188.1612
 20
40.5593
 30
0.0
 11
-149.9089
 21
40.5593
 31
0.0
  0
LINE
  5
55F
330
18
100
AcDbEntity
  8
DEFAULT
 62
     3
100
AcDbLine
 10
-188.1612
 20
-11.4022
 30
0.0
 11
-179.9089
 21
-11.4022
 31
0.0
  0
SOLID
  5
560
330
18
100
AcDbEntity
  8
DEFAULT
 62
     3
100
AcDbTrace
 10
-192.1563
 20
40.3743
 30
0.0
 11
-192.2146
 21
40.3743
 31
0.0
 12
-192.1855
 22
40.5593
 32
0.0
 13
-192.1855
 23
40.5593
 33
0.0
  0
SOLID
  5
561
330
18
100
AcDbEntity
  8
DEFAULT
 62
     3
100
AcDbTrace
 10
-192.2146
 20
-14.4597
 30
0.0
 11
-192.1563
 21
-14.4597
 31
0.0
 12
-192.1855
 22
-14.6447
 32
0.0
 13
-192.1855
 23
-14.6447
 33
0.0
  0
LINE
  5
562
330
18
100
AcDbEntity
  8
DEFAULT
 62
     3
100
AcDbLine
 10
-192.1855
 20
11.6845
 30
0.0
 11
-192.1855
 21
40.5593
 31
0.0
  0
LINE
  5
563
330
18
100
AcDbEntity
  8
DEFAULT
 62
     3
100
AcDbLine
 10
-192.1855
 20
-14.6447
 30
0.0
 11
-192.1855
 21
8.3195
 31
0.0
  0
TEXT
  5
564
330
18
100
AcDbEntity
  8
DEFAULT
 62
     3
100
AcDbText
 10
-194.1211
 20
9.421900000000001
 30
0.0
 40
1.1368
  1
55 3/16
  7
ARIAL_BOLD
100
AcDbText
  0
LINE
  5
565
330
18
100
AcDbEntity
  8
DEFAULT
 62
     3
100
AcDbLine
 10
-192.3105
 20
40.5593
 30
0.0
 11
-149.9089
 21
40.5593
 31
0.0
  0
LINE
  5
566
330
18
100
AcDbEntity
  8
DEFAULT
 62
     3
100
AcDbLine
 10
-192.3105
 20
-14.6447
 30
0.0
 11
-179.9089
 21
-14.6447
 31
0.0
  0
SOLID
  5
567
330
18
100
AcDbEntity
  8
DEFAULT
 62
     3
100
AcDbTrace
 10
-195.9945
 20
40.3743
 30
0.0
 11
-196.0528
 21
40.3743
 31
0.0
 12
-196.0237
 22
40.5593
 32
0.0
 13
-196.0237
 23
40.5593
 33
0.0
  0
SOLID
  5
568
330
18
100
AcDbEntity
  8
DEFAULT
 62
     3
100
AcDbTrace
 10
-196.0528
 20
-16.4597
 30
0.0
 11
-195.9945
 21
-16.4597
 31
0.0
 12
-196.0237
 22
-16.6447
 32
0.0
 13
-196.0237
 23
-16.6447
 33
0.0
  0
LINE
  5
569
330
18
100
AcDbEntity
  8
DEFAULT
 62
     3
100
AcDbLine
 10
-196.0237
 20
15.119
 30
0.0
 11
-196.0237
 21
40.5593
 31
0.0
  0
LINE
  5
56A
330
18
100
AcDbEntity
  8
DEFAULT
 62
     3
100
AcDbLine
 10
-196.0237
 20
-16.6447
 30
0.0
 11
-196.0237
 21
11.754
 31
0.0
  0
TEXT
  5
56B
330
18
100
AcDbEntity
  8
DEFAULT
 62
     3
100
AcDbText
 10
-197.9593
 20
12.8564
 30
0.0
 40
1.1368
  1
57 3/16
  7
ARIAL_BOLD
100
AcDbText
  0
LINE
  5
56C
330
18
100
AcDbEntity
  8
DEFAULT
 62
     3
100
AcDbLine
 10
-196.1487
 20
40.5593
 30
0.0
 11
-149.9089
 21
40.5593
 31
0.0
  0
LINE
  5
56D
330
18
100
AcDbEntity
  8
DEFAULT
 62
     3
100
AcDbLine
 10
-196.1487
 20
-16.6447
 30
0.0
 11
-179.9089
 21
-16.6447
 31
0.0
  0
LINE
  5
56E
330
18
100
AcDbEntity
  8
DEFAULT
 62
     6
100
AcDbLine
 10
-195.8946
 20
-14.6447
 30
0.0
 11
-179.8464
 21
-14.6447
 31
0.0
  0
TEXT
  5
56F
330
18
100
AcDbEntity
  8
DEFAULT
100
AcDbText
 10
43.3144
 20
-14.0057
 30
0.0
 40
1.2632
  1
ground level
  7
ARIAL
100
AcDbText
  0
SOLID
  5
570
330
18
100
AcDbEntity
  8
DEFAULT
 62
     3
100
AcDbTrace
 10
183.9656
 20
7.8093
 30
0.0
 11
183.9073
 21
7.8093
 31
0.0
 12
183.9365
 22
7.9943
 32
0.0
 13
183.9365
 23
7.9943
 33
0.0
  0
SOLID
  5
571
330
18
100
AcDbEntity
  8
DEFAULT
 62
     3
100
AcDbTrace
 10
183.9073
 20
-53.2427
 30
0.0
 11
183.9656
 21
-53.2427
 31
0.0
 12
183.9365
 22
-53.4277
 32
0.0
 13
183.9365
 23
-53.4277
 33
0.0
  0
LINE
  5
572
330
18
100
AcDbEntity
  8
DEFAULT
 62
     3
100
AcDbLine
 10
183.9365
 20
-18.4606
 30
0.0
 11
183.9365
 21
7.9943
 31
0.0
  0
LINE
  5
573
330
18
100
AcDbEntity
  8
DEFAULT
 62
     3
100
AcDbLine
 10
183.9365
 20
-53.4277
 30
0.0
 11
183.9365
 21
-22.1856
 31
0.0
  0
TEXT
  5
574
330
18
100
AcDbEntity
  8
DEFAULT
 62
     3
100
AcDbText
 10
181.7844
 20
-20.9677
 30
0.0
 40
1.2632
  1
61 7/16
  7
ARIAL_BOLD
100
AcDbText
  0
LINE
  5
575
330
18
100
AcDbEntity
  8
DEFAULT
 62
     3
100
AcDbLine
 10
164.7287
 20
7.9943
 30
0.0
 11
184.0615
 21
7.9943
 31
0.0
  0
LINE
  5
576
330
18
100
AcDbEntity
  8
DEFAULT
 62
     3
100
AcDbLine
 10
164.7287
 20
-53.4277
 30
0.0
 11
184.0615
 21
-53.4277
 31
0.0
  0
TEXT
  5
577
330
18
100
AcDbEntity
  8
DEFAULT
100
AcDbText
 10
43.1665
 20
-38.605
 30
0.0
 40
2.6316
  1
SIDEVIEW
  7
ARIAL_BOLD
100
AcDbText
  0
TEXT
  5
578
330
18
100
AcDbEntity
  8
DEFAULT
100
AcDbText
 10
149.356
 20
-64.43859999999999
 30
0.0
 40
2.6316
  1
OVERHEAD VIEW
  7
ARIAL_BOLD
100
AcDbText
  0
LINE
  5
579
330
18
100
AcDbEntity
  8
DEFAULT
100
AcDbLine
 10
-202.9812
 20
-73.80110000000001
 30
0.0
 11
-202.9812
 21
74.55410000000001
 31
0.0
  0
POINT
  5
57A
330
18
100
AcDbEntity
  8
DEFAULT
 62
     1
100
AcDbPoint
 10
-184.0605
 20
-73.80110000000001
 30
0.0
  0
POINT
  5
57B
330
18
100
AcDbEntity
  8
DEFAULT
 62
     1
100
AcDbPoint
 10
-184.0605
 20
-73.80110000000001
 30
0.0
  0
LINE
  5
57C
330
18
100
AcDbEntity
  8
DEFAULT
100
AcDbLine
 10
-202.9812
 20
-53.3756
 30
0.0
 11
-165.1414
 21
-53.3756
 31
0.0
  0
LINE
  5
57D
330
18
100
AcDbEntity
  8
DEFAULT
100
AcDbLine
 10
-202.9812
 20
-57.1606
 30
0.0
 11
-165.1414
 21
-57.1606
 31
0.0
  0
LINE
  5
57E
330
18
100
AcDbEntity
  8
DEFAULT
100
AcDbLine
 10
-202.9812
 20
-60.9453
 30
0.0
 11
-165.1414
 21
-60.9453
 31
0.0
  0
LINE
  5
57F
330
18
100
AcDbEntity
  8
DEFAULT
100
AcDbLine
 10
-186.328
 20
-73.80110000000001
 30
0.0
 11
-186.328
 21
-60.9453
 31
0.0
  0
LINE
  5
580
330
18
100
AcDbEntity
  8
DEFAULT
100
AcDbLine
 10
-202.9812
 20
-66.61069999999999
 30
0.0
 11
-186.328
 21
-66.61069999999999
 31
0.0
  0
LINE
  5
581
330
18
100
AcDbEntity
  8
DEFAULT
100
AcDbLine
 10
-175.738
 20
-73.80110000000001
 30
0.0
 11
-175.738
 21
-72.2873
 31
0.0
  0
LINE
  5
582
330
18
100
AcDbEntity
  8
DEFAULT
100
AcDbLine
 10
-202.9812
 20
-70.7752
 30
0.0
 11
-186.328
 21
-70.7752
 31
0.0
  0
LINE
  5
583
330
18
100
AcDbEntity
  8
DEFAULT
100
AcDbLine
 10
-186.3235
 20
-72.2873
 30
0.0
 11
-165.1414
 21
-72.2873
 31
0.0
  0
LINE
  5
584
330
18
100
AcDbEntity
  8
DEFAULT
100
AcDbLine
 10
-202.9812
 20
-73.80110000000001
 30
0.0
 11
-165.1414
 21
-73.80110000000001
 31
0.0
  0
TEXT
  5
585
330
18
100
AcDbEntity
  8
DEFAULT
100
AcDbText
 10
-197.1252
 20
-60.1105
 30
0.0
 40
2.0711
  1
Sundial Sculptures
  7
ARIAL_BOLD
100
AcDbText
  0
TEXT
  5
586
330
18
100
AcDbEntity
  8
DEFAULT
100
AcDbText
 10
-196.385
 20
-56.1108
 30
0.0
 40
1.6478
  1
By John L. Carmichael
  7
ARIAL_BOLD
100
AcDbText
  0
POINT
  5
587
330
18
100
AcDbEntity
  8
DEFAULT
 62
     1
100
AcDbPoint
 10
-194.6547
 20
-73.80110000000001
 30
0.0
  0
TEXT
  5
588
330
18
100
AcDbEntity
  8
DEFAULT
100
AcDbText
 10
-200.5604
 20
-73.5189
 30
0.0
 40
0.9556
  1
Note: These plans
  7
ARIAL_BOLD
100
AcDbText
  0
TEXT
  5
589
330
18
100
AcDbEntity
  8
DEFAULT
100
AcDbText
 10
-200.5604
 20
-74.97750000000001
 30
0.0
 40
0.9556
  1
are not copywrited
  7
ARIAL_BOLD
100
AcDbText
  0
LINE
  5
58A
330
18
100
AcDbEntity
  8
DEFAULT
100
AcDbLine
 10
-193.5925
 20
-70.7752
 30
0.0
 11
-193.5925
 21
-66.61069999999999
 31
0.0
  0
TEXT
  5
58B
330
18
100
AcDbEntity
  8
DEFAULT
100
AcDbText
 10
-202.6965
 20
-67.9966
 30
0.0
 40
0.86
  1
COORDINATES
  7
ARIAL_BOLD
100
AcDbText
  0
TEXT
  5
58C
330
18
100
AcDbEntity
  8
DEFAULT
100
AcDbText
 10
-191.4961
 20
-67.9966
 30
0.0
 40
0.86
  1
TYPE
  7
ARIAL_BOLD
100
AcDbText
  0
LINE
  5
58D
330
18
100
AcDbEntity
  8
DEFAULT
100
AcDbLine
 10
-202.9812
 20
-45.8065
 30
0.0
 11
-165.1414
 21
-45.8065
 31
0.0
  0
LINE
  5
58E
330
18
100
AcDbEntity
  8
DEFAULT
100
AcDbLine
 10
-202.9812
 20
-49.5911
 30
0.0
 11
-165.1414
 21
-49.5911
 31
0.0
  0
LINE
  5
58F
330
18
100
AcDbEntity
  8
DEFAULT
100
AcDbLine
 10
-165.1414
 20
-73.80110000000001
 30
0.0
 11
-165.1414
 21
-45.8065
 31
0.0
  0
LINE
  5
590
330
18
100
AcDbEntity
  8
DEFAULT
100
AcDbLine
 10
-202.9812
 20
-73.80110000000001
 30
0.0
 11
-202.9812
 21
-45.8065
 31
0.0
  0
TEXT
  5
591
330
18
100
AcDbEntity
  8
DEFAULT
100
AcDbText
 10
-202.1339
 20
-48.5404
 30
0.0
 40
1.6478
  1
Academy School District Sundial
  7
ARIAL_BOLD
100
AcDbText
  0
TEXT
  5
592
330
18
100
AcDbEntity
  8
DEFAULT
100
AcDbText
 10
-200.0651
 20
-62.2523
 30
0.0
 40
0.7827
  1
Size:
  7
ARIAL_BOLD
100
AcDbText
  0
TEXT
  5
593
330
18
100
AcDbEntity
  8
DEFAULT
100
AcDbText
 10
-200.0651
 20
-63.447
 30
0.0
 40
0.7827
  1
Rod Gnomon: 3" dia.
  7
ARIAL_BOLD
100
AcDbText
  0
TEXT
  5
594
330
18
100
AcDbEntity
  8
DEFAULT
100
AcDbText
 10
-200.0651
 20
-64.6417
 30
0.0
 40
0.7827
  1
side lengths: 60"
  7
ARIAL_BOLD
100
AcDbText
  0
TEXT
  5
595
330
18
100
AcDbEntity
  8
DEFAULT
100
AcDbText
 10
-200.0651
 20
-65.8364
 30
0.0
 40
0.7827
  1
stone width: 4" 
  7
ARIAL_BOLD
100
AcDbText
  0
TEXT
  5
596
330
18
100
AcDbEntity
  8
DEFAULT
100
AcDbText
 10
-202.1751
 20
-70.5522
 30
0.0
 40
0.7552
  1
Lat: 39.033°N
  7
ARIAL_BOLD
100
AcDbText
  0
TEXT
  5
597
330
18
100
AcDbEntity
  8
DEFAULT
100
AcDbText
 10
-202.1751
 20
-71.705
 30
0.0
 40
0.7552
  1
Lon: 104.795°W
  7
ARIAL_BOLD
100
AcDbText
  0
TEXT
  5
598
330
18
100
AcDbEntity
  8
DEFAULT
100
AcDbText
 10
-192.5296
 20
-69.60509999999999
 30
0.0
 40
0.7552
  1
Equatorial
  7
ARIAL_BOLD
100
AcDbText
  0
TEXT
  5
599
330
18
100
AcDbEntity
  8
DEFAULT
100
AcDbText
 10
-183.9761
 20
-62.8317
 30
0.0
 40
0.8925
  1
CLIENT INFORMATION
  7
ARIAL_BOLD
100
AcDbText
  0
TEXT
  5
59A
330
18
100
AcDbEntity
  8
DEFAULT
100
AcDbText
 10
-183.9761
 20
-64.194
 30
0.0
 40
0.8925
  1
Academy School District 20
  7
ARIAL_BOLD
100
AcDbText
  0
TEXT
  5
59B
330
18
100
AcDbEntity
  8
DEFAULT
100
AcDbText
 10
-183.9761
 20
-65.55629999999999
 30
0.0
 40
0.8925
  1
10221 Lexington Drive
  7
ARIAL_BOLD
100
AcDbText
  0
TEXT
  5
59C
330
18
100
AcDbEntity
  8
DEFAULT
100
AcDbText
 10
-183.9761
 20
-66.9186
 30
0.0
 40
0.8925
  1
Colorado Springs CO 80920
  7
ARIAL_BOLD
100
AcDbText
  0
TEXT
  5
59D
330
18
100
AcDbEntity
  8
DEFAULT
100
AcDbText
 10
-183.9761
 20
-68.2809
 30
0.0
 40
0.8925
  1
Tel: 491-1158
  7
ARIAL_BOLD
100
AcDbText
  0
TEXT
  5
59E
330
18
100
AcDbEntity
  8
DEFAULT
100
AcDbText
 10
-183.9761
 20
-69.64319999999999
 30
0.0
 40
0.8925
  1
Email: Chris Coulter: 
  7
ARIAL_BOLD
100
AcDbText
  0
TEXT
  5
59F
330
18
100
AcDbEntity
  8
DEFAULT
100
AcDbText
 10
-183.9761
 20
-71.0055
 30
0.0
 40
0.8925
  1
ccoulter@d20.co.edu
  7
ARIAL_BOLD
100
AcDbText
  0
TEXT
  5
5A0
330
18
100
AcDbEntity
  8
DEFAULT
100
AcDbText
 10
-174.3587
 20
-73.5706
 30
0.0
 40
1.0299
  1
Sheet 1 of 1
  7
ARIAL_BOLD
100
AcDbText
  0
TEXT
  5
5A1
330
18
100
AcDbEntity
  8
DEFAULT
100
AcDbText
 10
-199.523
 20
-52.3249
 30
0.0
 40
1.6478
  1
All Sundial Final Drawings 3
  7
ARIAL_BOLD
100
AcDbText
  0
TEXT
  5
5A2
330
18
100
AcDbEntity
  8
DEFAULT
100
AcDbText
 10
-185.7863
 20
-73.5706
 30
0.0
 40
1.0299
  1
Date: 06/07/06
  7
ARIAL_BOLD
100
AcDbText
  0
TEXT
  5
5A3
330
18
100
AcDbEntity
  8
DEFAULT
100
AcDbText
 10
-57.4282
 20
-62.5392
 30
0.0
 40
5.2632
  1
All Sundial Final Drawings 3
  7
ARIAL_BOLD
100
AcDbText
  0
LINE
  5
5A4
330
18
100
AcDbEntity
  8
DEFAULT
100
AcDbLine
 10
-202.9812
 20
-73.80110000000001
 30
0.0
 11
204.013
 21
-73.80110000000001
 31
0.0
  0
LINE
  5
5A5
330
18
100
AcDbEntity
  8
DEFAULT
100
AcDbLine
 10
204.013
 20
-73.80110000000001
 30
0.0
 11
204.013
 21
74.55410000000001
 31
0.0
  0
LINE
  5
5A6
330
18
100
AcDbEntity
  8
DEFAULT
100
AcDbLine
 10
-202.9812
 20
74.55410000000001
 30
0.0
 11
204.013
 21
74.55410000000001
 31
0.0
  0
ENDSEC
  0
SECTION
  2
OBJECTS
  0
DICTIONARY
  5
C
330
0
100
AcDbDictionary
281
     1
  3
ACAD_GROUP
350
D
  3
ACAD_LAYOUT
350
5A7
  3
ACAD_MLINESTYLE
350
1B
  0
DICTIONARY
  5
D
102
{ACAD_REACTORS
330
C
102
}
330
C
100
AcDbDictionary
281
     1
  0
DICTIONARY
  5
5A7
102
{ACAD_REACTORS
330
C
102
}
330
C
100
AcDbDictionary
281
     1
  3
Layout1
350
5A9
  3
Model
350
5A8
  0
DICTIONARY
  5
1B
102
{ACAD_REACTORS
330
C
102
}
330
C
100
AcDbDictionary
281
     1
  3
STANDARD
350
1C
  0
LAYOUT
  5
5A9
102
{ACAD_REACTORS
330
5A7
102
}
330
5A7
100
AcDbPlotSettings
  1

  2

  4

  6

 40
0.0
 41
0.0
 42
0.0
 43
0.0
 44
0.0
 45
0.0
 46
0.0
 47
0.0
 48
0.0
 49
0.0
140
0.0
141
0.0
142
1.0
143
1.0
 70
   688
 72
     0
 73
     0
 74
     5
  7

 75
    16
 76
     0
 77
     2
 78
   300
147
1.0
148
0.0
149
0.0
100
AcDbLayout
  1
Layout1
 70
     1
 71
     1
 10
0.0
 20
0.0
 11
0.0
 21
0.0
 12
0.0
 22
0.0
 32
0.0
 14
0.0
 24
0.0
 34
0.0
 15
0.0
 25
0.0
 35
0.0
146
0.0
 13
0.0
 23
0.0
 33
0.0
 16
1.0
 26
0.0
 36
0.0
 17
0.0
 27
1.0
 37
0.0
 76
     0
330
15
  0
LAYOUT
  5
5A8
102
{ACAD_REACTORS
330
5A7
102
}
330
5A7
100
AcDbPlotSettings
  1

  2

  4

  6

 40
0.0
 41
0.0
 42
0.0
 43
0.0
 44
0.0
 45
0.0
 46
0.0
 47
0.0
 48
0.0
 49
0.0
140
0.0
141
0.0
142
1.0
143
1.0
 70
   688
 72
     0
 73
     0
 74
     5
  7

 75
    16
 76
     0
 77
     2
 78
   300
147
1.0
148
0.0
149
0.0
100
AcDbLayout
  1
Model
 70
     1
 71
     0
 10
0.0
 20
0.0
 11
0.0
 21
0.0
 12
0.0
 22
0.0
 32
0.0
 14
0.0
 24
0.0
 34
0.0
 15
0.0
 25
0.0
 35
0.0
146
0.0
 13
0.0
 23
0.0
 33
0.0
 16
1.0
 26
0.0
 36
0.0
 17
0.0
 27
1.0
 37
0.0
 76
     0
330
18
  0
MLINESTYLE
  5
1C
102
{ACAD_REACTORS
330
1B
102
}
330
1B
100
AcDbMlineStyle
  2
STANDARD
 70
     0
  3

 62
   256
 51
90.0
 52
90.0
 71
     2
 49
0.5
 62
   256
  6
BYLAYER
 49
-0.5
 62
   256
  6
BYLAYER
  0
ENDSEC
  0
EOF
